  0
SECTION
  2
HEADER
  9
$ACADVER
  1
AC1032
  9
$ACADMAINTVER
 90
        4
  9
$DWGCODEPAGE
  3
ANSI_1252
  9
$REQUIREDVERSIONS
160
                 0
  9
$INSBASE
 10
0.0
 20
0.0
 30
0.0
  9
$EXTMIN
 10
1813.168022314897
 20
527.115773456012
 30
-76.97363477640508
  9
$EXTMAX
 10
10381.3994357504
 20
5070.926163757304
 30
42.0000000000003
  9
$LIMMIN
 10
0.0
 20
0.0
  9
$LIMMAX
 10
420.0
 20
297.0
  9
$ORTHOMODE
 70
     1
  9
$REGENMODE
 70
     1
  9
$FILLMODE
 70
     1
  9
$QTEXTMODE
 70
     0
  9
$MIRRTEXT
 70
     0
  9
$LTSCALE
 40
1.0
  9
$ATTMODE
 70
     1
  9
$TEXTSIZE
 40
2.5
  9
$TRACEWID
 40
1.0
  9
$TEXTSTYLE
  7
Standard
  9
$CLAYER
  8
0
  9
$CELTYPE
  6
ByLayer
  9
$CECOLOR
 62
     7
  9
$CELTSCALE
 40
1.0
  9
$DISPSILH
 70
     0
  9
$DIMSCALE
 40
1.0
  9
$DIMASZ
 40
2.5
  9
$DIMEXO
 40
0.625
  9
$DIMDLI
 40
3.75
  9
$DIMRND
 40
0.0
  9
$DIMDLE
 40
0.0
  9
$DIMEXE
 40
1.25
  9
$DIMTP
 40
0.0
  9
$DIMTM
 40
0.0
  9
$DIMTXT
 40
2.5
  9
$DIMCEN
 40
2.5
  9
$DIMTSZ
 40
0.0
  9
$DIMTOL
 70
     0
  9
$DIMLIM
 70
     0
  9
$DIMTIH
 70
     0
  9
$DIMTOH
 70
     0
  9
$DIMSE1
 70
     0
  9
$DIMSE2
 70
     0
  9
$DIMTAD
 70
     1
  9
$DIMZIN
 70
     8
  9
$DIMBLK
  1

  9
$DIMASO
 70
     1
  9
$DIMSHO
 70
     1
  9
$DIMPOST
  1

  9
$DIMAPOST
  1

  9
$DIMALT
 70
     0
  9
$DIMALTD
 70
     3
  9
$DIMALTF
 40
0.03937007874016
  9
$DIMLFAC
 40
1.0
  9
$DIMTOFL
 70
     1
  9
$DIMTVP
 40
0.0
  9
$DIMTIX
 70
     0
  9
$DIMSOXD
 70
     0
  9
$DIMSAH
 70
     0
  9
$DIMBLK1
  1

  9
$DIMBLK2
  1

  9
$DIMSTYLE
  2
ISO-25
  9
$DIMCLRD
 70
     0
  9
$DIMCLRE
 70
     0
  9
$DIMCLRT
 70
     0
  9
$DIMTFAC
 40
1.0
  9
$DIMGAP
 40
0.625
  9
$DIMJUST
 70
     0
  9
$DIMSD1
 70
     0
  9
$DIMSD2
 70
     0
  9
$DIMTOLJ
 70
     0
  9
$DIMTZIN
 70
     8
  9
$DIMALTZ
 70
     0
  9
$DIMALTTZ
 70
     0
  9
$DIMUPT
 70
     0
  9
$DIMDEC
 70
     2
  9
$DIMTDEC
 70
     2
  9
$DIMALTU
 70
     2
  9
$DIMALTTD
 70
     3
  9
$DIMTXSTY
  7
Standard
  9
$DIMAUNIT
 70
     0
  9
$DIMADEC
 70
     0
  9
$DIMALTRND
 40
0.0
  9
$DIMAZIN
 70
     0
  9
$DIMDSEP
 70
    44
  9
$DIMATFIT
 70
     3
  9
$DIMFRAC
 70
     0
  9
$DIMLDRBLK
  1

  9
$DIMLUNIT
 70
     2
  9
$DIMLWD
 70
    -2
  9
$DIMLWE
 70
    -2
  9
$DIMTMOVE
 70
     0
  9
$DIMFXL
 40
1.0
  9
$DIMFXLON
 70
     0
  9
$DIMJOGANG
 40
0.7853981633974483
  9
$DIMTFILL
 70
     0
  9
$DIMTFILLCLR
 70
     0
  9
$DIMARCSYM
 70
     0
  9
$DIMLTYPE
  6

  9
$DIMLTEX1
  6

  9
$DIMLTEX2
  6

  9
$DIMTXTDIRECTION
 70
     0
  9
$LUNITS
 70
     2
  9
$LUPREC
 70
     4
  9
$SKETCHINC
 40
1.0
  9
$FILLETRAD
 40
5.0
  9
$AUNITS
 70
     0
  9
$AUPREC
 70
     0
  9
$MENU
  1
.
  9
$ELEVATION
 40
0.0
  9
$PELEVATION
 40
0.0
  9
$THICKNESS
 40
0.0
  9
$LIMCHECK
 70
     0
  9
$CHAMFERA
 40
0.0
  9
$CHAMFERB
 40
0.0
  9
$CHAMFERC
 40
0.0
  9
$CHAMFERD
 40
0.0
  9
$SKPOLY
 70
     0
  9
$TDCREATE
 40
2458872.354042176
  9
$TDUCREATE
 40
2458872.270708843
  9
$TDUPDATE
 40
2460917.343763461
  9
$TDUUPDATE
 40
2460917.260430127
  9
$TDINDWG
 40
18.7480498495
  9
$TDUSRTIMER
 40
18.7480291551
  9
$USRTIMER
 70
     1
  9
$ANGBASE
 50
0.0
  9
$ANGDIR
 70
     0
  9
$PDMODE
 70
     0
  9
$PDSIZE
 40
0.0
  9
$PLINEWID
 40
0.0
  9
$SPLFRAME
 70
     0
  9
$SPLINETYPE
 70
     6
  9
$SPLINESEGS
 70
     8
  9
$HANDSEED
  5
1A4
  9
$SURFTAB1
 70
     6
  9
$SURFTAB2
 70
     6
  9
$SURFTYPE
 70
     6
  9
$SURFU
 70
     6
  9
$SURFV
 70
     6
  9
$UCSBASE
  2

  9
$UCSNAME
  2

  9
$UCSORG
 10
0.0
 20
0.0
 30
0.0
  9
$UCSXDIR
 10
1.0
 20
0.0
 30
0.0
  9
$UCSYDIR
 10
0.0
 20
1.0
 30
0.0
  9
$UCSORTHOREF
  2

  9
$UCSORTHOVIEW
 70
     0
  9
$UCSORGTOP
 10
0.0
 20
0.0
 30
0.0
  9
$UCSORGBOTTOM
 10
0.0
 20
0.0
 30
0.0
  9
$UCSORGLEFT
 10
0.0
 20
0.0
 30
0.0
  9
$UCSORGRIGHT
 10
0.0
 20
0.0
 30
0.0
  9
$UCSORGFRONT
 10
0.0
 20
0.0
 30
0.0
  9
$UCSORGBACK
 10
0.0
 20
0.0
 30
0.0
  9
$PUCSBASE
  2

  9
$PUCSNAME
  2

  9
$PUCSORG
 10
0.0
 20
0.0
 30
0.0
  9
$PUCSXDIR
 10
1.0
 20
0.0
 30
0.0
  9
$PUCSYDIR
 10
0.0
 20
1.0
 30
0.0
  9
$PUCSORTHOREF
  2

  9
$PUCSORTHOVIEW
 70
     0
  9
$PUCSORGTOP
 10
0.0
 20
0.0
 30
0.0
  9
$PUCSORGBOTTOM
 10
0.0
 20
0.0
 30
0.0
  9
$PUCSORGLEFT
 10
0.0
 20
0.0
 30
0.0
  9
$PUCSORGRIGHT
 10
0.0
 20
0.0
 30
0.0
  9
$PUCSORGFRONT
 10
0.0
 20
0.0
 30
0.0
  9
$PUCSORGBACK
 10
0.0
 20
0.0
 30
0.0
  9
$USERI1
 70
     0
  9
$USERI2
 70
     0
  9
$USERI3
 70
     0
  9
$USERI4
 70
     0
  9
$USERI5
 70
     0
  9
$USERR1
 40
0.0
  9
$USERR2
 40
0.0
  9
$USERR3
 40
0.0
  9
$USERR4
 40
0.0
  9
$USERR5
 40
0.0
  9
$WORLDVIEW
 70
     1
  9
$SHADEDGE
 70
     3
  9
$SHADEDIF
 70
    70
  9
$TILEMODE
 70
     1
  9
$MAXACTVP
 70
    64
  9
$PINSBASE
 10
0.0
 20
0.0
 30
0.0
  9
$PLIMCHECK
 70
     0
  9
$PEXTMIN
 10
15.0979381443299
 20
17.31672394043528
 30
0.0
  9
$PEXTMAX
 10
241.9020618556701
 20
177.6832760595647
 30
0.0
  9
$PLIMMIN
 10
-20.0
 20
-7.5
  9
$PLIMMAX
 10
277.0
 20
202.5
  9
$UNITMODE
 70
     0
  9
$VISRETAIN
 70
     1
  9
$PLINEGEN
 70
     0
  9
$PSLTSCALE
 70
     1
  9
$TREEDEPTH
 70
  3020
  9
$CMLSTYLE
  2
Standard
  9
$CMLJUST
 70
     0
  9
$CMLSCALE
 40
20.0
  9
$PROXYGRAPHICS
 70
     1
  9
$MEASUREMENT
 70
     1
  9
$CELWEIGHT
370
    -3
  9
$ENDCAPS
280
     0
  9
$JOINSTYLE
280
     0
  9
$LWDISPLAY
290
     0
  9
$INSUNITS
 70
     4
  9
$HYPERLINKBASE
  1

  9
$STYLESHEET
  1

  9
$XEDIT
290
     1
  9
$CEPSNTYPE
380
     0
  9
$PSTYLEMODE
290
     1
  9
$FINGERPRINTGUID
  2
{904878C0-6957-4577-8612-FB6076E7829B}
  9
$VERSIONGUID
  2
{EDC5F5B8-66B0-4530-9C98-803C2708DFE7}
  9
$EXTNAMES
290
     1
  9
$PSVPSCALE
 40
0.0
  9
$OLESTARTUP
290
     0
  9
$SORTENTS
280
   127
  9
$INDEXCTL
280
     0
  9
$HIDETEXT
280
     1
  9
$XCLIPFRAME
280
     2
  9
$HALOGAP
280
     0
  9
$OBSCOLOR
 70
   257
  9
$OBSLTYPE
280
     0
  9
$INTERSECTIONDISPLAY
280
     0
  9
$INTERSECTIONCOLOR
 70
   257
  9
$DIMASSOC
280
     2
  9
$PROJECTNAME
  1

  9
$CAMERADISPLAY
290
     0
  9
$LENSLENGTH
 40
50.0
  9
$CAMERAHEIGHT
 40
0.0
  9
$STEPSPERSEC
 40
2.0
  9
$STEPSIZE
 40
6.0
  9
$3DDWFPREC
 40
2.0
  9
$PSOLWIDTH
 40
5.0
  9
$PSOLHEIGHT
 40
80.0
  9
$LOFTANG1
 40
1.570796326794897
  9
$LOFTANG2
 40
1.570796326794897
  9
$LOFTMAG1
 40
0.0
  9
$LOFTMAG2
 40
0.0
  9
$LOFTPARAM
 70
     7
  9
$LOFTNORMALS
280
     1
  9
$LATITUDE
 40
37.795
  9
$LONGITUDE
 40
-122.394
  9
$NORTHDIRECTION
 40
0.0
  9
$TIMEZONE
 70
 -8000
  9
$LIGHTGLYPHDISPLAY
280
     1
  9
$TILEMODELIGHTSYNCH
280
     1
  9
$CMATERIAL
347
19
  9
$SOLIDHIST
280
     0
  9
$SHOWHIST
280
     1
  9
$DWFFRAME
280
     2
  9
$DGNFRAME
280
     0
  9
$REALWORLDSCALE
290
     1
  9
$INTERFERECOLOR
 62
     1
  9
$INTERFEREOBJVS
345
37
  9
$INTERFEREVPVS
346
38
  9
$CSHADOW
280
     0
  9
$SHADOWPLANELOCATION
 40
0.0
  0
ENDSEC
  0
SECTION
  2
CLASSES
  0
CLASS
  1
ACDBDICTIONARYWDFLT
  2
AcDbDictionaryWithDefault
  3
ObjectDBX Classes
 90
        0
 91
        5
280
     0
281
     0
  0
CLASS
  1
MATERIAL
  2
AcDbMaterial
  3
ObjectDBX Classes
 90
     1153
 91
        5
280
     0
281
     0
  0
CLASS
  1
SORTENTSTABLE
  2
AcDbSortentsTable
  3
ObjectDBX Classes
 90
        0
 91
        5
280
     0
281
     0
  0
CLASS
  1
PLOTSETTINGS
  2
AcDbPlotSettings
  3
ObjectDBX Classes
 90
        0
 91
        5
280
     0
281
     0
  0
CLASS
  1
VISUALSTYLE
  2
AcDbVisualStyle
  3
ObjectDBX Classes
 90
     4095
 91
        5
280
     0
281
     0
  0
CLASS
  1
SCALE
  2
AcDbScale
  3
ObjectDBX Classes
 90
     1153
 91
        5
280
     0
281
     0
  0
CLASS
  1
DICTIONARYVAR
  2
AcDbDictionaryVar
  3
ObjectDBX Classes
 90
        0
 91
        5
280
     0
281
     0
  0
ENDSEC
  0
SECTION
  2
TABLES
  0
TABLE
  2
VPORT
  5
32
330
0
100
AcDbSymbolTable
 70
     1
  0
VPORT
  5
39
330
32
100
AcDbSymbolTableRecord
100
AcDbViewportTableRecord
  2
*Active
 70
     0
 10
0.0
 20
0.0
 11
1.0
 21
1.0
 12
-3579.295953214158
 22
121.5970570417426
 13
0.0
 23
0.0
 14
10.0
 24
10.0
 15
10.0
 25
10.0
 16
0.0
 26
0.0
 36
1.0
 17
7759.205398603561
 27
2848.63477070933
 37
0.0
 40
246.5719409278202
 41
1.94
 42
50.0
 43
0.0
 44
0.0
 50
0.0
 51
0.0
 71
     0
 72
  1000
 73
     1
 74
     3
 75
     0
 76
     0
 77
     0
 78
     0
281
     0
 65
     1
110
0.0
120
0.0
130
0.0
111
1.0
121
0.0
131
0.0
112
0.0
122
1.0
132
0.0
 79
     0
146
0.0
348
3A
 60
     3
 61
     5
292
     1
282
     1
141
0.0
142
0.0
 63
   250
421
  3355443
1001
ACAD_NAV_VCDISPLAY
1070
     3
  0
ENDTAB
  0
TABLE
  2
LTYPE
  5
11
330
0
100
AcDbSymbolTable
 70
    25
  0
LTYPE
  5
12
330
11
100
AcDbSymbolTableRecord
100
AcDbLinetypeTableRecord
  2
ByBlock
 70
     0
  3

 72
    65
 73
     0
 40
0.0
  0
LTYPE
  5
13
330
11
100
AcDbSymbolTableRecord
100
AcDbLinetypeTableRecord
  2
ByLayer
 70
     0
  3

 72
    65
 73
     0
 40
0.0
  0
LTYPE
  5
14
330
11
100
AcDbSymbolTableRecord
100
AcDbLinetypeTableRecord
  2
Continuous
 70
     0
  3
Solid line
 72
    65
 73
     0
 40
0.0
  0
ENDTAB
  0
TABLE
  2
LAYER
  5
1
102
{ACAD_XDICTIONARY
360
2
102
}
330
0
100
AcDbSymbolTable
 70
    26
  0
LAYER
  5
7
102
{ACAD_XDICTIONARY
360
8
102
}
330
1
100
AcDbSymbolTableRecord
100
AcDbLayerTableRecord
  2
0
 70
     0
 62
     7
  6
Continuous
370
    -3
390
C
347
E
348
0
1001
AcAecLayerStandard
1000

1000

1001
AcCmTransparency
1071
 33554687
  0
ENDTAB
  0
TABLE
  2
STYLE
  5
17
330
0
100
AcDbSymbolTable
 70
    14
  0
STYLE
  5
18
330
17
100
AcDbSymbolTableRecord
100
AcDbTextStyleTableRecord
  2
Standard
 70
     0
 40
0.0
 41
1.0
 50
0.0
 71
     0
 42
2.5
  3
arial.ttf
  4

1001
ACAD
1000
Arial
1071
       34
  0
ENDTAB
  0
TABLE
  2
VIEW
  5
30
330
0
100
AcDbSymbolTable
 70
     0
  0
ENDTAB
  0
TABLE
  2
UCS
  5
31
330
0
100
AcDbSymbolTable
 70
     0
  0
ENDTAB
  0
TABLE
  2
APPID
  5
5
330
0
100
AcDbSymbolTable
 70
    29
  0
APPID
  5
6
330
5
100
AcDbSymbolTableRecord
100
AcDbRegAppTableRecord
  2
ACAD
 70
     0
  0
APPID
  5
2A
330
5
100
AcDbSymbolTableRecord
100
AcDbRegAppTableRecord
  2
ACAD_PSEXT
 70
     0
  0
APPID
  5
16C
330
5
100
AcDbSymbolTableRecord
100
AcDbRegAppTableRecord
  2
AcadAnnotative
 70
     0
  0
APPID
  5
3B
330
5
100
AcDbSymbolTableRecord
100
AcDbRegAppTableRecord
  2
ACAD_NAV_VCDISPLAY
 70
     0
  0
APPID
  5
15
330
5
100
AcDbSymbolTableRecord
100
AcDbRegAppTableRecord
  2
AcAecLayerStandard
 70
     0
  0
APPID
  5
16
330
5
100
AcDbSymbolTableRecord
100
AcDbRegAppTableRecord
  2
AcCmTransparency
 70
     0
  0
APPID
  5
2B
330
5
100
AcDbSymbolTableRecord
100
AcDbRegAppTableRecord
  2
PLOTTRANSPARENCY
 70
     0
  0
ENDTAB
  0
TABLE
  2
DIMSTYLE
  5
1C
330
0
100
AcDbSymbolTable
 70
    16
100
AcDbDimStyleTable
  0
DIMSTYLE
105
1D
102
{ACAD_REACTORS
102
}
330
1C
100
AcDbSymbolTableRecord
100
AcDbDimStyleTableRecord
  2
ISO-25
 70
     0
 41
2.5
 42
0.625
 43
3.75
 44
1.25
 73
     0
 74
     0
 77
     1
 78
     8
140
2.5
141
2.5
143
0.03937007874016
147
0.625
171
     3
172
     1
178
     0
271
     2
272
     2
274
     3
278
    44
283
     0
284
     8
340
18
  0
ENDTAB
  0
TABLE
  2
BLOCK_RECORD
  5
20
330
0
100
AcDbSymbolTable
 70
   333
  0
BLOCK_RECORD
  5
21
102
{ACAD_XDICTIONARY
360
22
102
}
330
20
100
AcDbSymbolTableRecord
100
AcDbBlockTableRecord
  2
*Model_Space
340
27
 70
     0
280
     1
281
     0
  0
BLOCK_RECORD
  5
2C
330
20
100
AcDbSymbolTableRecord
100
AcDbBlockTableRecord
  2
*Paper_Space
340
2F
 70
     0
280
     1
281
     0
  0
ENDTAB
  0
ENDSEC
  0
SECTION
  2
BLOCKS
  0
BLOCK
  5
24
330
21
100
AcDbEntity
  8
0
100
AcDbBlockBegin
  2
*Model_Space
 70
     0
 10
0.0
 20
0.0
 30
0.0
  3
*Model_Space
  1

  0
ENDBLK
  5
25
330
21
100
AcDbEntity
  8
0
100
AcDbBlockEnd
  0
BLOCK
  5
2D
330
2C
100
AcDbEntity
 67
     1
  8
0
100
AcDbBlockBegin
  2
*Paper_Space
 70
     0
 10
0.0
 20
0.0
 30
0.0
  3
*Paper_Space
  1

  0
ENDBLK
  5
2E
330
2C
100
AcDbEntity
 67
     1
  8
0
100
AcDbBlockEnd
  0
ENDSEC
  0
SECTION
  2
ENTITIES
  0
LINE
  5
63
330
21
100
AcDbEntity
  8
0
 62
     7
370
    -3
100
AcDbLine
 10
161.5979854558127
 20
0.0000493677775921
 30
0.0
 11
0.0
 21
0.0
 31
0.0
  0
LINE
  5
64
330
21
100
AcDbEntity
  8
0
 62
     7
370
    -3
100
AcDbLine
 10
0.0
 20
0.0
 30
0.0
 11
0.0
 21
61.2898196419419
 31
0.0
  0
LINE
  5
65
330
21
100
AcDbEntity
  8
0
 62
     7
370
    -3
100
AcDbLine
 10
2.403104490085752
 20
62.18425774391426
 30
0.0
 11
2.402093997190605
 21
58.92374429708525
 31
0.0
  0
LINE
  5
66
330
21
100
AcDbEntity
  8
0
 62
     7
370
    -3
100
AcDbLine
 10
2.402093997190605
 20
58.92374429708525
 30
0.0
 11
159.1899670178154
 21
58.92369999999983
 31
0.0
  0
LINE
  5
67
330
21
100
AcDbEntity
  8
0
 62
     7
370
    -3
100
AcDbLine
 10
159.1899380141631
 20
58.92370000000801
 30
0.0
 11
159.194880965727
 21
62.10214770339553
 31
0.0
  0
LINE
  5
68
330
21
100
AcDbEntity
  8
0
 62
     7
370
    -3
100
AcDbLine
 10
2.403104490085752
 20
62.18425774391426
 30
0.0
 11
0.8851530262863889
 21
62.18425774391426
 31
0.0
  0
ARC
  5
69
330
21
100
AcDbEntity
  8
0
 62
     7
370
    -3
100
AcDbCircle
 10
0.894486801252242
 20
61.2898196419419
 30
0.0
 40
0.8944868012525519
100
AcDbArc
 50
89.4021201685774
 51
180.0
  0
LINE
  5
6A
330
21
100
AcDbEntity
  8
0
 62
     7
370
    -3
100
AcDbLine
 10
159.194880965727
 20
62.10214770339553
 30
0.0
 11
160.7128324295263
 21
62.10214770339553
 31
0.0
  0
ARC
  5
6B
330
21
100
AcDbEntity
  8
0
 62
     7
370
    -3
100
AcDbCircle
 10
160.7034986545605
 20
61.20770960142318
 30
0.0
 40
0.8944868012525519
100
AcDbArc
 50
0.0
 51
90.59787983142259
  0
LINE
  5
6C
330
21
100
AcDbEntity
  8
0
 62
     7
370
    -3
100
AcDbLine
 10
161.5979854558127
 20
61.20770960142318
 30
0.0
 11
161.5979854558127
 21
0.0000493677775921
 31
0.0
  0
LINE
  5
6D
330
21
100
AcDbEntity
  8
0
 62
     7
370
    -3
100
AcDbLine
 10
161.5979854558127
 20
56.84352667643043
 30
0.0
 11
0.0
 21
56.84349999999995
 31
0.0
  0
LINE
  5
6E
330
21
100
AcDbEntity
  8
0
 62
     7
370
    -3
100
AcDbLine
 10
161.5979854558127
 20
48.6878113414723
 30
0.0
 11
0.0
 21
48.6877999999997
 31
0.0
  0
ARC
  5
6F
330
21
100
AcDbEntity
  8
0
 62
     7
370
    -3
100
AcDbCircle
 10
153.8359015525684
 20
43.65990198731697
 30
0.0
 40
1.2
100
AcDbArc
 50
359.6559532191709
 51
180.3440467808291
  0
LINE
  5
70
330
21
100
AcDbEntity
  8
0
 62
     7
370
    -3
100
AcDbLine
 10
155.035879918426
 20
43.65269633169191
 30
0.0
 11
155.035879918426
 21
24.4836350038745
 31
0.0
  0
LINE
  5
71
330
21
100
AcDbEntity
  8
0
 62
     7
370
    -3
100
AcDbLine
 10
152.6359231867109
 20
43.65269633169191
 30
0.0
 11
152.6350720010932
 21
24.4836350038745
 31
0.0
  0
ARC
  5
72
330
21
100
AcDbEntity
  8
0
 62
     7
370
    -3
100
AcDbCircle
 10
153.8358799184261
 20
24.49084065949955
 30
0.0
 40
1.2
100
AcDbArc
 50
179.6559532191709
 51
0.3440467808291378
  0
ARC
  5
73
330
21
100
AcDbEntity
  8
0
 62
     7
370
    -3
100
AcDbCircle
 10
138.8359190153105
 20
43.63701351975851
 30
0.0
 40
1.2
100
AcDbArc
 50
359.6559532191709
 51
180.3440467808291
  0
LINE
  5
74
330
21
100
AcDbEntity
  8
0
 62
     7
370
    -3
100
AcDbLine
 10
140.0358973811681
 20
43.62980786413345
 30
0.0
 11
140.0358973811681
 21
30.74534011281412
 31
0.0
  0
LINE
  5
75
330
21
100
AcDbEntity
  8
0
 62
     7
370
    -3
100
AcDbLine
 10
137.635940649453
 20
43.62980786413345
 30
0.0
 11
137.6353685536087
 21
30.74596667054493
 31
0.0
  0
ARC
  5
76
330
21
100
AcDbEntity
  8
0
 62
     7
370
    -3
100
AcDbCircle
 10
138.8356331345467
 20
30.75282993775681
 30
0.0
 40
1.200284203299843
100
AcDbArc
 50
179.6672905892755
 51
0.3304002116762607
  0
ARC
  5
77
330
21
100
AcDbEntity
  8
0
 62
     7
370
    -3
100
AcDbCircle
 10
107.4375522323762
 20
43.65269633169191
 30
0.0
 40
1.2
100
AcDbArc
 50
359.6559532191709
 51
180.3440467808291
  0
LINE
  5
78
330
21
100
AcDbEntity
  8
0
 62
     7
370
    -3
100
AcDbLine
 10
108.6375305982338
 20
43.64549067606686
 30
0.0
 11
108.6375305982338
 21
24.4836350038745
 31
0.0
  0
LINE
  5
79
330
21
100
AcDbEntity
  8
0
 62
     7
370
    -3
100
AcDbLine
 10
106.2375738665187
 20
43.64549067606686
 30
0.0
 11
106.2367230008622
 21
24.4836350038745
 31
0.0
  0
ARC
  5
7A
330
21
100
AcDbEntity
  8
0
 62
     7
370
    -3
100
AcDbCircle
 10
107.4375305982339
 20
24.4836350038745
 30
0.0
 40
1.2
100
AcDbArc
 50
179.6559532191709
 51
0.3440467808291378
  0
ARC
  5
7B
330
21
100
AcDbEntity
  8
0
 62
     7
370
    -3
100
AcDbCircle
 10
102.4375522323762
 20
43.65269633169191
 30
0.0
 40
1.2
100
AcDbArc
 50
359.6559532191709
 51
180.3440467808291
  0
LINE
  5
7C
330
21
100
AcDbEntity
  8
0
 62
     7
370
    -3
100
AcDbLine
 10
103.6375305982338
 20
43.64549067606686
 30
0.0
 11
103.6375305982338
 21
24.4836350038745
 31
0.0
  0
LINE
  5
7D
330
21
100
AcDbEntity
  8
0
 62
     7
370
    -3
100
AcDbLine
 10
101.2375738665187
 20
43.64549067606686
 30
0.0
 11
101.2367230008622
 21
24.4836350038745
 31
0.0
  0
ARC
  5
7E
330
21
100
AcDbEntity
  8
0
 62
     7
370
    -3
100
AcDbCircle
 10
102.4375305982339
 20
24.4836350038745
 30
0.0
 40
1.2
100
AcDbArc
 50
179.6559532191709
 51
0.3440467808291378
  0
ARC
  5
7F
330
21
100
AcDbEntity
  8
0
 62
     7
370
    -3
100
AcDbCircle
 10
97.43755223237622
 20
43.65269633169191
 30
0.0
 40
1.2
100
AcDbArc
 50
359.6559532191709
 51
180.3440467808291
  0
LINE
  5
80
330
21
100
AcDbEntity
  8
0
 62
     7
370
    -3
100
AcDbLine
 10
98.63753059823375
 20
43.64549067606686
 30
0.0
 11
98.63753059823375
 21
24.4836350038745
 31
0.0
  0
LINE
  5
81
330
21
100
AcDbEntity
  8
0
 62
     7
370
    -3
100
AcDbLine
 10
96.23757386651869
 20
43.64549067606686
 30
0.0
 11
96.23672300086218
 21
24.4836350038745
 31
0.0
  0
ARC
  5
82
330
21
100
AcDbEntity
  8
0
 62
     7
370
    -3
100
AcDbCircle
 10
97.43753059823393
 20
24.4836350038745
 30
0.0
 40
1.2
100
AcDbArc
 50
179.6559532191709
 51
0.3440467808291378
  0
ARC
  5
83
330
21
100
AcDbEntity
  8
0
 62
     7
370
    -3
100
AcDbCircle
 10
92.43755223237622
 20
43.65269633169191
 30
0.0
 40
1.2
100
AcDbArc
 50
359.6559532191709
 51
180.3440467808291
  0
LINE
  5
84
330
21
100
AcDbEntity
  8
0
 62
     7
370
    -3
100
AcDbLine
 10
93.63753059823375
 20
43.64549067606686
 30
0.0
 11
93.63753059823375
 21
24.4836350038745
 31
0.0
  0
LINE
  5
85
330
21
100
AcDbEntity
  8
0
 62
     7
370
    -3
100
AcDbLine
 10
91.23757386651869
 20
43.64549067606686
 30
0.0
 11
91.23672300086218
 21
24.4836350038745
 31
0.0
  0
ARC
  5
86
330
21
100
AcDbEntity
  8
0
 62
     7
370
    -3
100
AcDbCircle
 10
92.43753059823393
 20
24.4836350038745
 30
0.0
 40
1.2
100
AcDbArc
 50
179.6559532191709
 51
0.3440467808291378
  0
ARC
  5
87
330
21
100
AcDbEntity
  8
0
 62
     7
370
    -3
100
AcDbCircle
 10
87.43755223237622
 20
43.65269633169191
 30
0.0
 40
1.2
100
AcDbArc
 50
359.6559532191709
 51
180.3440467808291
  0
LINE
  5
88
330
21
100
AcDbEntity
  8
0
 62
     7
370
    -3
100
AcDbLine
 10
88.63753059823375
 20
43.64549067606686
 30
0.0
 11
88.63753059823375
 21
24.4836350038745
 31
0.0
  0
LINE
  5
89
330
21
100
AcDbEntity
  8
0
 62
     7
370
    -3
100
AcDbLine
 10
86.23757386651869
 20
43.64549067606686
 30
0.0
 11
86.23672300086218
 21
24.4836350038745
 31
0.0
  0
ARC
  5
8A
330
21
100
AcDbEntity
  8
0
 62
     7
370
    -3
100
AcDbCircle
 10
87.43753059823393
 20
24.4836350038745
 30
0.0
 40
1.2
100
AcDbArc
 50
179.6559532191709
 51
0.3440467808291378
  0
LINE
  5
8B
330
21
100
AcDbEntity
  8
0
 62
     7
370
    -3
100
AcDbLine
 10
109.0711018977509
 20
20.20204205316986
 30
0.0
 11
85.87493959632957
 21
20.20204205316986
 31
0.0
  0
LINE
  5
8C
330
21
100
AcDbEntity
  8
0
 62
     7
370
    -3
100
AcDbLine
 10
85.87493959632957
 20
20.20204205316986
 30
0.0
 11
85.87493959632957
 21
12.78400466279891
 31
0.0
  0
LINE
  5
8D
330
21
100
AcDbEntity
  8
0
 62
     7
370
    -3
100
AcDbLine
 10
85.87493959632957
 20
12.78400466279891
 30
0.0
 11
109.0710574723689
 21
12.78386574774095
 31
0.0
  0
LINE
  5
8E
330
21
100
AcDbEntity
  8
0
 62
     7
370
    -3
100
AcDbLine
 10
109.0711018977509
 20
20.20204205316986
 30
0.0
 11
109.0710574732011
 21
12.78400466279891
 31
0.0
  0
LINE
  5
8F
330
21
100
AcDbEntity
  8
0
100
AcDbLine
 10
93.27103820533921
 20
18.33860612397348
 30
0.0
 11
93.27103820533921
 21
13.78400466279891
 31
0.0
  0
LINE
  5
90
330
21
100
AcDbEntity
  8
0
100
AcDbLine
 10
93.27103820533921
 20
13.78400466279891
 30
0.0
 11
91.1749588641942
 21
13.78400466279891
 31
0.0
  0
LINE
  5
91
330
21
100
AcDbEntity
  8
0
100
AcDbLine
 10
91.1749588641942
 20
13.78400466279891
 30
0.0
 11
91.1749588641942
 21
18.33860612397348
 31
0.0
  0
LINE
  5
92
330
21
100
AcDbEntity
  8
0
100
AcDbLine
 10
91.1749588641942
 20
18.33860612397348
 30
0.0
 11
93.27103820533921
 21
18.33860612397348
 31
0.0
  0
LINE
  5
93
330
21
100
AcDbEntity
  8
0
100
AcDbLine
 10
89.77103820533921
 20
18.33860612397348
 30
0.0
 11
89.77103820533921
 21
13.78400466279891
 31
0.0
  0
LINE
  5
94
330
21
100
AcDbEntity
  8
0
100
AcDbLine
 10
89.77103820533921
 20
13.78400466279891
 30
0.0
 11
87.6749588641942
 21
13.78400466279891
 31
0.0
  0
LINE
  5
95
330
21
100
AcDbEntity
  8
0
100
AcDbLine
 10
87.6749588641942
 20
13.78400466279891
 30
0.0
 11
87.6749588641942
 21
18.33860612397348
 31
0.0
  0
LINE
  5
96
330
21
100
AcDbEntity
  8
0
100
AcDbLine
 10
87.6749588641942
 20
18.33860612397348
 30
0.0
 11
89.77103820533921
 21
18.33860612397348
 31
0.0
  0
LINE
  5
97
330
21
100
AcDbEntity
  8
0
100
AcDbLine
 10
86.97299853476488
 20
12.78400466279891
 30
0.0
 11
93.9729985347658
 21
12.78400466279891
 31
0.0
  0
LINE
  5
98
330
21
100
AcDbEntity
  8
0
 62
     7
370
    -3
100
AcDbLine
 10
76.00463268209296
 20
0.000023219223749
 30
0.0
 11
76.00463268209296
 21
4.000023219223749
 31
0.0
  0
LINE
  5
99
330
21
100
AcDbEntity
  8
0
 62
     7
370
    -3
100
AcDbLine
 10
76.00463268209296
 20
4.000023219223749
 30
0.0
 11
85.9970000000003
 21
4.000023219223749
 31
0.0
  0
LINE
  5
9A
330
21
100
AcDbEntity
  8
0
 62
     7
370
    -3
100
AcDbLine
 10
85.9970000000003
 20
4.000023219223749
 30
0.0
 11
85.9970012219892
 21
0.0000262718672275
 31
0.0
  0
ARC
  5
9B
330
21
100
AcDbEntity
  8
0
 62
     7
370
    -3
100
AcDbCircle
 10
143.8359190153105
 20
43.63701351975851
 30
0.0
 40
1.2
100
AcDbArc
 50
359.6559532191709
 51
180.3440467808291
  0
LINE
  5
9C
330
21
100
AcDbEntity
  8
0
 62
     7
370
    -3
100
AcDbLine
 10
145.0358973811681
 20
43.62980786413345
 30
0.0
 11
145.0358973811681
 21
30.74534011281412
 31
0.0
  0
LINE
  5
9D
330
21
100
AcDbEntity
  8
0
 62
     7
370
    -3
100
AcDbLine
 10
142.635940649453
 20
43.62980786413345
 30
0.0
 11
142.6353685536087
 21
30.74596667054493
 31
0.0
  0
ARC
  5
9E
330
21
100
AcDbEntity
  8
0
 62
     7
370
    -3
100
AcDbCircle
 10
143.8356331345467
 20
30.75282993775681
 30
0.0
 40
1.200284203299843
100
AcDbArc
 50
179.6672905892755
 51
0.3304002116762607
  0
ARC
  5
9F
330
21
100
AcDbEntity
  8
0
 62
     7
370
    -3
100
AcDbCircle
 10
148.8359190153105
 20
43.63701351975851
 30
0.0
 40
1.2
100
AcDbArc
 50
359.6559532191709
 51
180.3440467808291
  0
LINE
  5
A0
330
21
100
AcDbEntity
  8
0
 62
     7
370
    -3
100
AcDbLine
 10
150.0358973811681
 20
43.62980786413345
 30
0.0
 11
150.0358973811681
 21
30.74534011281412
 31
0.0
  0
LINE
  5
A1
330
21
100
AcDbEntity
  8
0
 62
     7
370
    -3
100
AcDbLine
 10
147.635940649453
 20
43.62980786413345
 30
0.0
 11
147.6353685536087
 21
30.74596667054493
 31
0.0
  0
ARC
  5
A2
330
21
100
AcDbEntity
  8
0
 62
     7
370
    -3
100
AcDbCircle
 10
148.8356331345467
 20
30.75282993775681
 30
0.0
 40
1.200284203299843
100
AcDbArc
 50
179.6672905892755
 51
0.3304002116762607
  0
ARC
  5
A3
330
21
100
AcDbEntity
  8
0
 62
     7
370
    -3
100
AcDbCircle
 10
118.8359190153105
 20
43.63701351975851
 30
0.0
 40
1.2
100
AcDbArc
 50
359.6559532191709
 51
180.3440467808291
  0
LINE
  5
A4
330
21
100
AcDbEntity
  8
0
 62
     7
370
    -3
100
AcDbLine
 10
120.0358973811681
 20
43.62980786413345
 30
0.0
 11
120.0358973811681
 21
30.74534011281412
 31
0.0
  0
LINE
  5
A5
330
21
100
AcDbEntity
  8
0
 62
     7
370
    -3
100
AcDbLine
 10
117.635940649453
 20
43.62980786413345
 30
0.0
 11
117.6353685536087
 21
30.74596667054493
 31
0.0
  0
ARC
  5
A6
330
21
100
AcDbEntity
  8
0
 62
     7
370
    -3
100
AcDbCircle
 10
118.8356331345467
 20
30.75282993775681
 30
0.0
 40
1.200284203299843
100
AcDbArc
 50
179.6672905892755
 51
0.3304002116762607
  0
ARC
  5
A7
330
21
100
AcDbEntity
  8
0
 62
     7
370
    -3
100
AcDbCircle
 10
123.8359190153105
 20
43.63701351975851
 30
0.0
 40
1.2
100
AcDbArc
 50
359.6559532191709
 51
180.3440467808291
  0
LINE
  5
A8
330
21
100
AcDbEntity
  8
0
 62
     7
370
    -3
100
AcDbLine
 10
125.0358973811681
 20
43.62980786413345
 30
0.0
 11
125.0358973811681
 21
30.74534011281412
 31
0.0
  0
LINE
  5
A9
330
21
100
AcDbEntity
  8
0
 62
     7
370
    -3
100
AcDbLine
 10
122.635940649453
 20
43.62980786413345
 30
0.0
 11
122.6353685536087
 21
30.74596667054493
 31
0.0
  0
ARC
  5
AA
330
21
100
AcDbEntity
  8
0
 62
     7
370
    -3
100
AcDbCircle
 10
123.8356331345467
 20
30.75282993775681
 30
0.0
 40
1.200284203299843
100
AcDbArc
 50
179.6672905892755
 51
0.3304002116762607
  0
ARC
  5
AB
330
21
100
AcDbEntity
  8
0
 62
     7
370
    -3
100
AcDbCircle
 10
128.8359190153105
 20
43.63701351975851
 30
0.0
 40
1.2
100
AcDbArc
 50
359.6559532191709
 51
180.3440467808291
  0
LINE
  5
AC
330
21
100
AcDbEntity
  8
0
 62
     7
370
    -3
100
AcDbLine
 10
130.0358973811681
 20
43.62980786413345
 30
0.0
 11
130.0358973811681
 21
30.74534011281412
 31
0.0
  0
LINE
  5
AD
330
21
100
AcDbEntity
  8
0
 62
     7
370
    -3
100
AcDbLine
 10
127.635940649453
 20
43.62980786413345
 30
0.0
 11
127.6353685536087
 21
30.74596667054493
 31
0.0
  0
ARC
  5
AE
330
21
100
AcDbEntity
  8
0
 62
     7
370
    -3
100
AcDbCircle
 10
128.8356331345467
 20
30.75282993775681
 30
0.0
 40
1.200284203299843
100
AcDbArc
 50
179.6672905892755
 51
0.3304002116762607
  0
ARC
  5
AF
330
21
100
AcDbEntity
  8
0
 62
     7
370
    -3
100
AcDbCircle
 10
113.8359190153105
 20
43.63701351975851
 30
0.0
 40
1.2
100
AcDbArc
 50
359.6559532191709
 51
180.3440467808291
  0
LINE
  5
B0
330
21
100
AcDbEntity
  8
0
 62
     7
370
    -3
100
AcDbLine
 10
115.0358973811681
 20
43.62980786413345
 30
0.0
 11
115.0358973811681
 21
30.74534011281412
 31
0.0
  0
LINE
  5
B1
330
21
100
AcDbEntity
  8
0
 62
     7
370
    -3
100
AcDbLine
 10
112.635940649453
 20
43.62980786413345
 30
0.0
 11
112.6353685536087
 21
30.74596667054493
 31
0.0
  0
ARC
  5
B2
330
21
100
AcDbEntity
  8
0
 62
     7
370
    -3
100
AcDbCircle
 10
113.8356331345467
 20
30.75282993775681
 30
0.0
 40
1.200284203299843
100
AcDbArc
 50
179.6672905892755
 51
0.3304002116762607
  0
LINE
  5
B3
330
21
100
AcDbEntity
  8
0
  6
Continuous
100
AcDbLine
 10
133.1968399771486
 20
26.59386574774089
 30
0.0
 11
133.1968399771486
 21
12.78386574774095
 31
0.0
  0
LINE
  5
B4
330
21
100
AcDbEntity
  8
0
  6
Continuous
100
AcDbLine
 10
133.7768399771485
 20
12.93386574774058
 30
0.0
 11
133.7768399773486
 21
26.09386574774089
 31
0.0
  0
LINE
  5
B5
330
21
100
AcDbEntity
  8
0
  6
Continuous
100
AcDbLine
 10
134.2768399809484
 20
26.09386574774089
 30
0.0
 11
134.2768399772485
 21
13.78386574774095
 31
0.0
  0
LINE
  5
B6
330
21
100
AcDbEntity
  8
0
  6
Continuous
100
AcDbLine
 10
134.8118399772484
 20
20.58386574774067
 30
0.0
 11
134.8118399772484
 21
17.78386574774095
 31
0.0
  0
LINE
  5
B7
330
21
100
AcDbEntity
  8
0
  6
Continuous
100
AcDbLine
 10
135.2118399772489
 20
17.78386574774095
 30
0.0
 11
135.2118399772489
 21
20.58386574774067
 31
0.0
  0
LINE
  5
B8
330
21
100
AcDbEntity
  8
0
  6
Continuous
100
AcDbLine
 10
135.3118399772484
 20
22.88386574774086
 30
0.0
 11
135.3118399772484
 21
20.58386574774067
 31
0.0
  0
LINE
  5
B9
330
21
100
AcDbEntity
  8
0
  6
Continuous
100
AcDbLine
 10
135.3118399772484
 20
15.38386574774086
 30
0.0
 11
135.3118399772484
 21
17.78386574774095
 31
0.0
  0
LINE
  5
BA
330
21
100
AcDbEntity
  8
0
  6
Continuous
100
AcDbLine
 10
135.6118399772486
 20
15.68386574774058
 30
0.0
 11
135.6118399772486
 21
22.58386574774067
 31
0.0
  0
LINE
  5
BB
330
21
100
AcDbEntity
  8
0
  6
Continuous
100
AcDbLine
 10
137.7118399772489
 20
21.58386574774067
 30
0.0
 11
137.7118399772489
 21
22.58386574774067
 31
0.0
  0
LINE
  5
BC
330
21
100
AcDbEntity
  8
0
  6
Continuous
100
AcDbLine
 10
137.801839977049
 20
18.65925140434092
 30
0.0
 11
137.801839977049
 21
15.68386574774058
 31
0.0
  0
LINE
  5
BD
330
21
100
AcDbEntity
  8
0
  6
Continuous
100
AcDbLine
 10
137.881839977149
 20
26.09386574774089
 30
0.0
 11
137.881839977149
 21
25.59386574774089
 31
0.0
  0
LINE
  5
BE
330
21
100
AcDbEntity
  8
0
  6
Continuous
100
AcDbLine
 10
138.1618399771487
 20
24.53386574774095
 30
0.0
 11
138.1618399771487
 21
22.88386574774086
 31
0.0
  0
LINE
  5
BF
330
21
100
AcDbEntity
  8
0
  6
Continuous
100
AcDbLine
 10
138.261839977049
 20
15.68386574774058
 30
0.0
 11
138.261839977049
 21
18.65925140434092
 31
0.0
  0
LINE
  5
C0
330
21
100
AcDbEntity
  8
0
  6
Continuous
100
AcDbLine
 10
138.4618399771489
 20
22.58386574774067
 30
0.0
 11
138.4618399771489
 21
24.23386574774077
 31
0.0
  0
LINE
  5
C1
330
21
100
AcDbEntity
  8
0
  6
Continuous
100
AcDbLine
 10
138.8218399770485
 20
18.65925140434092
 30
0.0
 11
138.8218399770485
 21
15.68386574774058
 31
0.0
  0
LINE
  5
C2
330
21
100
AcDbEntity
  8
0
  6
Continuous
100
AcDbLine
 10
139.2618399772491
 20
25.59386574774089
 30
0.0
 11
139.2618399772491
 21
24.53386574774095
 31
0.0
  0
LINE
  5
C3
330
21
100
AcDbEntity
  8
0
  6
Continuous
100
AcDbLine
 10
139.2818399770485
 20
15.68386574774058
 30
0.0
 11
139.2818399770485
 21
18.65925140434092
 31
0.0
  0
LINE
  5
C4
330
21
100
AcDbEntity
  8
0
  6
Continuous
100
AcDbLine
 10
139.5618399772484
 20
24.23386574774077
 30
0.0
 11
139.5618399772484
 21
26.09386574774089
 31
0.0
  0
LINE
  5
C5
330
21
100
AcDbEntity
  8
0
  6
Continuous
100
AcDbLine
 10
139.8418399770489
 20
18.65925140434092
 30
0.0
 11
139.8418399770489
 21
15.68386574774058
 31
0.0
  0
LINE
  5
C6
330
21
100
AcDbEntity
  8
0
  6
Continuous
100
AcDbLine
 10
140.301839977049
 20
15.68386574774058
 30
0.0
 11
140.301839977049
 21
18.65925140434092
 31
0.0
  0
LINE
  5
C7
330
21
100
AcDbEntity
  8
0
  6
Continuous
100
AcDbLine
 10
140.8618399770494
 20
18.65925140434092
 30
0.0
 11
140.8618399770494
 21
15.68386574774058
 31
0.0
  0
LINE
  5
C8
330
21
100
AcDbEntity
  8
0
  6
Continuous
100
AcDbLine
 10
141.3218399770485
 20
15.68386574774058
 30
0.0
 11
141.3218399770485
 21
18.65925140434092
 31
0.0
  0
LINE
  5
C9
330
21
100
AcDbEntity
  8
0
  6
Continuous
100
AcDbLine
 10
141.8818399770489
 20
18.65925140434092
 30
0.0
 11
141.8818399770489
 21
15.68386574774058
 31
0.0
  0
LINE
  5
CA
330
21
100
AcDbEntity
  8
0
  6
Continuous
100
AcDbLine
 10
142.3418399770489
 20
15.68386574774058
 30
0.0
 11
142.3418399770489
 21
18.65925140434092
 31
0.0
  0
LINE
  5
CB
330
21
100
AcDbEntity
  8
0
  6
Continuous
100
AcDbLine
 10
142.9018399770484
 20
18.65925140434092
 30
0.0
 11
142.9018399770484
 21
15.68386574774058
 31
0.0
  0
LINE
  5
CC
330
21
100
AcDbEntity
  8
0
  6
Continuous
100
AcDbLine
 10
143.3618399770494
 20
15.68386574774058
 30
0.0
 11
143.3618399770494
 21
18.65925140434092
 31
0.0
  0
LINE
  5
CD
330
21
100
AcDbEntity
  8
0
  6
Continuous
100
AcDbLine
 10
143.6618399772487
 20
24.23386574774077
 30
0.0
 11
143.6618399772487
 21
26.09386574774089
 31
0.0
  0
LINE
  5
CE
330
21
100
AcDbEntity
  8
0
  6
Continuous
100
AcDbLine
 10
143.9218399770489
 20
18.65925140434092
 30
0.0
 11
143.9218399770489
 21
15.68386574774058
 31
0.0
  0
LINE
  5
CF
330
21
100
AcDbEntity
  8
0
  6
Continuous
100
AcDbLine
 10
143.9618399772489
 20
24.53386574774095
 30
0.0
 11
143.9618399772489
 21
25.59386574774089
 31
0.0
  0
LINE
  5
D0
330
21
100
AcDbEntity
  8
0
  6
Continuous
100
AcDbLine
 10
144.3818399770489
 20
15.68386574774058
 30
0.0
 11
144.3818399770489
 21
18.65925140434092
 31
0.0
  0
LINE
  5
D1
330
21
100
AcDbEntity
  8
0
  6
Continuous
100
AcDbLine
 10
144.7618399771491
 20
24.23386574774077
 30
0.0
 11
144.7618399771491
 21
22.58386574774067
 31
0.0
  0
LINE
  5
D2
330
21
100
AcDbEntity
  8
0
  6
Continuous
100
AcDbLine
 10
144.9418399770493
 20
18.65925140434092
 30
0.0
 11
144.9418399770493
 21
15.68386574774058
 31
0.0
  0
LINE
  5
D3
330
21
100
AcDbEntity
  8
0
  6
Continuous
100
AcDbLine
 10
145.0618399771483
 20
22.88386574774086
 30
0.0
 11
145.0618399771483
 21
24.53386574774095
 31
0.0
  0
LINE
  5
D4
330
21
100
AcDbEntity
  8
0
  6
Continuous
100
AcDbLine
 10
145.341839977149
 20
25.59386574774089
 30
0.0
 11
145.341839977149
 21
26.09386574774089
 31
0.0
  0
LINE
  5
D5
330
21
100
AcDbEntity
  8
0
  6
Continuous
100
AcDbLine
 10
145.4018399770484
 20
15.68386574774058
 30
0.0
 11
145.4018399770484
 21
18.65925140434092
 31
0.0
  0
LINE
  5
D6
330
21
100
AcDbEntity
  8
0
  6
Continuous
100
AcDbLine
 10
145.5118399772491
 20
21.58386574774067
 30
0.0
 11
145.5118399772491
 21
22.58386574774067
 31
0.0
  0
LINE
  5
D7
330
21
100
AcDbEntity
  8
0
  6
Continuous
100
AcDbLine
 10
135.6118399772486
 20
22.58386574774067
 30
0.0
 11
135.3118399772484
 21
22.88386574774086
 31
0.0
  0
LINE
  5
D8
330
21
100
AcDbEntity
  8
0
  6
Continuous
100
AcDbLine
 10
138.1618399771487
 20
22.88386574774086
 30
0.0
 11
138.4618399771489
 21
22.58386574774067
 31
0.0
  0
LINE
  5
D9
330
21
100
AcDbEntity
  8
0
  6
Continuous
100
AcDbLine
 10
138.1618399771487
 20
24.53386574774095
 30
0.0
 11
138.4618399771489
 21
24.23386574774077
 31
0.0
  0
LINE
  5
DA
330
21
100
AcDbEntity
  8
0
  6
Continuous
100
AcDbLine
 10
147.6118399772486
 20
22.58386574774067
 30
0.0
 11
147.6118399772486
 21
15.68386574774058
 31
0.0
  0
LINE
  5
DB
330
21
100
AcDbEntity
  8
0
  6
Continuous
100
AcDbLine
 10
147.9118399772487
 20
15.38386574774086
 30
0.0
 11
147.9118399772487
 21
17.78386574774095
 31
0.0
  0
LINE
  5
DC
330
21
100
AcDbEntity
  8
0
  6
Continuous
100
AcDbLine
 10
147.9118399772487
 20
20.58386574774067
 30
0.0
 11
147.9118399772487
 21
22.88386574774086
 31
0.0
  0
LINE
  5
DD
330
21
100
AcDbEntity
  8
0
  6
Continuous
100
AcDbLine
 10
148.0118399772491
 20
20.58386574774067
 30
0.0
 11
148.0118399772491
 21
17.78386574774095
 31
0.0
  0
LINE
  5
DE
330
21
100
AcDbEntity
  8
0
  6
Continuous
100
AcDbLine
 10
148.4118399772487
 20
17.78386574774095
 30
0.0
 11
148.4118399772487
 21
20.58386574774067
 31
0.0
  0
LINE
  5
DF
330
21
100
AcDbEntity
  8
0
  6
Continuous
100
AcDbLine
 10
148.9468399771486
 20
13.78386574774095
 30
0.0
 11
148.9468399771486
 21
26.09386574774089
 31
0.0
  0
LINE
  5
E0
330
21
100
AcDbEntity
  8
0
  6
Continuous
100
AcDbLine
 10
149.4468399771486
 20
26.09386574774089
 30
0.0
 11
149.4468399771486
 21
12.93386574774058
 31
0.0
  0
LINE
  5
E1
330
21
100
AcDbEntity
  8
0
  6
Continuous
100
AcDbLine
 10
149.8668399771486
 20
12.78386574774095
 30
0.0
 11
149.8668399771486
 21
26.59386574774089
 31
0.0
  0
LINE
  5
E2
330
21
100
AcDbEntity
  8
0
  6
Continuous
100
AcDbLine
 10
143.9618399772489
 20
24.53386574774095
 30
0.0
 11
143.6618399772487
 21
24.23386574774077
 31
0.0
  0
LINE
  5
E3
330
21
100
AcDbEntity
  8
0
  6
Continuous
100
AcDbLine
 10
135.6118399772486
 20
15.68386574774058
 30
0.0
 11
135.3118399772484
 21
15.38386574774086
 31
0.0
  0
LINE
  5
E4
330
21
100
AcDbEntity
  8
0
  6
Continuous
100
AcDbLine
 10
145.0618399771483
 20
24.53386574774095
 30
0.0
 11
144.7618399771491
 21
24.23386574774077
 31
0.0
  0
LINE
  5
E5
330
21
100
AcDbEntity
  8
0
  6
Continuous
100
AcDbLine
 10
144.7618399771491
 20
22.58386574774067
 30
0.0
 11
145.0618399771483
 21
22.88386574774086
 31
0.0
  0
LINE
  5
E6
330
21
100
AcDbEntity
  8
0
  6
Continuous
100
AcDbLine
 10
147.6118399772486
 20
22.58386574774067
 30
0.0
 11
147.9118399772487
 21
22.88386574774086
 31
0.0
  0
LINE
  5
E7
330
21
100
AcDbEntity
  8
0
  6
Continuous
100
AcDbLine
 10
133.1968399771486
 20
12.78386574774095
 30
0.0
 11
149.8668399771486
 21
12.78386574774095
 31
0.0
  0
LINE
  5
E8
330
21
100
AcDbEntity
  8
0
  6
Continuous
100
AcDbLine
 10
133.1968399771486
 20
12.93386574774058
 30
0.0
 11
149.8668399771486
 21
12.93386574774058
 31
0.0
  0
LINE
  5
E9
330
21
100
AcDbEntity
  8
0
  6
Continuous
100
AcDbLine
 10
149.4468399771486
 20
13.28386574774095
 30
0.0
 11
133.7768399771485
 21
13.28386574774095
 31
0.0
  0
LINE
  5
EA
330
21
100
AcDbEntity
  8
0
  6
Continuous
100
AcDbLine
 10
134.2768399772485
 20
13.78386574774095
 30
0.0
 11
148.9468399771486
 21
13.78386574774095
 31
0.0
  0
LINE
  5
EB
330
21
100
AcDbEntity
  8
0
  6
Continuous
100
AcDbLine
 10
135.3118399772484
 20
15.38386574774086
 30
0.0
 11
147.9118399772487
 21
15.38386574774086
 31
0.0
  0
LINE
  5
EC
330
21
100
AcDbEntity
  8
0
  6
Continuous
100
AcDbLine
 10
147.6118399772486
 20
15.68386574774058
 30
0.0
 11
135.6118399772486
 21
15.68386574774058
 31
0.0
  0
LINE
  5
ED
330
21
100
AcDbEntity
  8
0
  6
Continuous
100
AcDbLine
 10
147.9118399772487
 20
15.38386574774086
 30
0.0
 11
147.6118399772486
 21
15.68386574774058
 31
0.0
  0
LINE
  5
EE
330
21
100
AcDbEntity
  8
0
  6
Continuous
100
AcDbLine
 10
139.2618399772491
 20
24.53386574774095
 30
0.0
 11
139.5618399772484
 21
24.23386574774077
 31
0.0
  0
LINE
  5
EF
330
21
100
AcDbEntity
  8
0
  6
Continuous
100
AcDbLine
 10
134.8118399772484
 20
17.78386574774095
 30
0.0
 11
135.6118399772486
 21
17.78386574774095
 31
0.0
  0
LINE
  5
F0
330
21
100
AcDbEntity
  8
0
  6
Continuous
100
AcDbLine
 10
147.6118399772486
 20
17.78386574774095
 30
0.0
 11
148.4118399772487
 21
17.78386574774095
 31
0.0
  0
LINE
  5
F1
330
21
100
AcDbEntity
  8
0
  6
Continuous
100
AcDbLine
 10
145.4018399770484
 20
18.65925140434092
 30
0.0
 11
144.9418399770493
 21
18.65925140434092
 31
0.0
  0
LINE
  5
F2
330
21
100
AcDbEntity
  8
0
  6
Continuous
100
AcDbLine
 10
144.3818399770489
 20
18.65925140434092
 30
0.0
 11
143.9218399770489
 21
18.65925140434092
 31
0.0
  0
LINE
  5
F3
330
21
100
AcDbEntity
  8
0
  6
Continuous
100
AcDbLine
 10
143.3618399770494
 20
18.65925140434092
 30
0.0
 11
142.9018399770484
 21
18.65925140434092
 31
0.0
  0
LINE
  5
F4
330
21
100
AcDbEntity
  8
0
  6
Continuous
100
AcDbLine
 10
142.3418399770489
 20
18.65925140434092
 30
0.0
 11
141.8818399770489
 21
18.65925140434092
 31
0.0
  0
LINE
  5
F5
330
21
100
AcDbEntity
  8
0
  6
Continuous
100
AcDbLine
 10
141.3218399770485
 20
18.65925140434092
 30
0.0
 11
140.8618399770494
 21
18.65925140434092
 31
0.0
  0
LINE
  5
F6
330
21
100
AcDbEntity
  8
0
  6
Continuous
100
AcDbLine
 10
140.301839977049
 20
18.65925140434092
 30
0.0
 11
139.8418399770489
 21
18.65925140434092
 31
0.0
  0
LINE
  5
F7
330
21
100
AcDbEntity
  8
0
  6
Continuous
100
AcDbLine
 10
139.2818399770485
 20
18.65925140434092
 30
0.0
 11
138.8218399770485
 21
18.65925140434092
 31
0.0
  0
LINE
  5
F8
330
21
100
AcDbEntity
  8
0
  6
Continuous
100
AcDbLine
 10
138.261839977049
 20
18.65925140434092
 30
0.0
 11
137.801839977049
 21
18.65925140434092
 31
0.0
  0
LINE
  5
F9
330
21
100
AcDbEntity
  8
0
  6
Continuous
100
AcDbLine
 10
134.8118399772484
 20
20.58386574774067
 30
0.0
 11
135.6118399772486
 21
20.58386574774067
 31
0.0
  0
LINE
  5
FA
330
21
100
AcDbEntity
  8
0
  6
Continuous
100
AcDbLine
 10
147.6118399772486
 20
20.58386574774067
 30
0.0
 11
148.4118399772487
 21
20.58386574774067
 31
0.0
  0
LINE
  5
FB
330
21
100
AcDbEntity
  8
0
  6
Continuous
100
AcDbLine
 10
135.6118399379484
 20
21.58386574774067
 30
0.0
 11
137.7118399772489
 21
21.58386574774067
 31
0.0
  0
LINE
  5
FC
330
21
100
AcDbEntity
  8
0
  6
Continuous
100
AcDbLine
 10
145.5118399772491
 20
21.58386574774067
 30
0.0
 11
147.6118400284486
 21
21.58386574774067
 31
0.0
  0
LINE
  5
FD
330
21
100
AcDbEntity
  8
0
  6
Continuous
100
AcDbLine
 10
147.6118399772486
 20
22.58386574774067
 30
0.0
 11
144.7618399771491
 21
22.58386574774067
 31
0.0
  0
LINE
  5
FE
330
21
100
AcDbEntity
  8
0
  6
Continuous
100
AcDbLine
 10
135.6118399772486
 20
22.58386574774067
 30
0.0
 11
138.4618399771489
 21
22.58386574774067
 31
0.0
  0
LINE
  5
FF
330
21
100
AcDbEntity
  8
0
  6
Continuous
100
AcDbLine
 10
147.9118399772487
 20
22.88386574774086
 30
0.0
 11
145.0618399771483
 21
22.88386574774086
 31
0.0
  0
LINE
  5
100
330
21
100
AcDbEntity
  8
0
  6
Continuous
100
AcDbLine
 10
138.1618399771487
 20
22.88386574774086
 30
0.0
 11
135.3118399772484
 21
22.88386574774086
 31
0.0
  0
LINE
  5
101
330
21
100
AcDbEntity
  8
0
  6
Continuous
100
AcDbLine
 10
138.4618399771489
 20
23.53386574774095
 30
0.0
 11
144.7618399771491
 21
23.53386574774095
 31
0.0
  0
LINE
  5
102
330
21
100
AcDbEntity
  8
0
  6
Continuous
100
AcDbLine
 10
144.7618399771491
 20
24.23386574774077
 30
0.0
 11
143.6618399772487
 21
24.23386574774077
 31
0.0
  0
LINE
  5
103
330
21
100
AcDbEntity
  8
0
  6
Continuous
100
AcDbLine
 10
139.5618399772484
 20
24.23386574774077
 30
0.0
 11
138.4618399771489
 21
24.23386574774077
 31
0.0
  0
LINE
  5
104
330
21
100
AcDbEntity
  8
0
  6
Continuous
100
AcDbLine
 10
145.0618399771483
 20
24.53386574774095
 30
0.0
 11
143.9618399772489
 21
24.53386574774095
 31
0.0
  0
LINE
  5
105
330
21
100
AcDbEntity
  8
0
  6
Continuous
100
AcDbLine
 10
139.2618399772491
 20
24.53386574774095
 30
0.0
 11
138.1618399771487
 21
24.53386574774095
 31
0.0
  0
LINE
  5
106
330
21
100
AcDbEntity
  8
0
  6
Continuous
100
AcDbLine
 10
143.6618399772487
 20
25.38386574774086
 30
0.0
 11
139.5618399772484
 21
25.38386574774086
 31
0.0
  0
LINE
  5
107
330
21
100
AcDbEntity
  8
0
  6
Continuous
100
AcDbLine
 10
145.341839977149
 20
25.59386574774089
 30
0.0
 11
143.9618399772489
 21
25.59386574774089
 31
0.0
  0
LINE
  5
108
330
21
100
AcDbEntity
  8
0
  6
Continuous
100
AcDbLine
 10
139.2618399772491
 20
25.59386574774089
 30
0.0
 11
137.881839977149
 21
25.59386574774089
 31
0.0
  0
LINE
  5
109
330
21
100
AcDbEntity
  8
0
  6
Continuous
100
AcDbLine
 10
133.7768399773486
 20
26.09386574774089
 30
0.0
 11
149.4468399771486
 21
26.09386574774089
 31
0.0
  0
LINE
  5
10A
330
21
100
AcDbEntity
  8
0
  6
Continuous
100
AcDbLine
 10
149.8668399771486
 20
26.59386574774089
 30
0.0
 11
133.1968399771486
 21
26.59386574774089
 31
0.0
  0
SPLINE
  5
10B
330
21
100
AcDbEntity
  8
0
  6
Continuous
100
AcDbSpline
210
0.0
220
0.0
230
1.0
 70
     8
 71
     3
 72
    21
 73
    17
 74
     0
 42
0.000000001
 43
0.0000000001
 40
0.0
 40
0.0
 40
0.0
 40
0.0
 40
0.0014705039
 40
0.0068372617
 40
0.0158118114
 40
0.0280526311
 40
0.0613501697
 40
0.1051465002
 40
0.1578723199
 40
0.2178171851
 40
0.2835234876
 40
0.3539800182
 40
0.5055433305
 40
0.6663204777
 40
0.8319629499
 40
1.0
 40
1.0
 40
1.0
 40
1.0
 10
149.4468399771486
 20
13.28386574774095
 30
0.0
 10
149.4468399771486
 20
13.28351885124084
 30
0.0
 10
149.4445688563483
 20
13.28570133874064
 30
0.0
 10
149.4431432879483
 20
13.28724892444097
 30
0.0
 10
149.4381757124484
 20
13.29246761624063
 30
0.0
 10
149.4295930867484
 20
13.30130351064054
 30
0.0
 10
149.4143587768485
 20
13.31641296214093
 30
0.0
 10
149.3927320379489
 20
13.33785405404069
 30
0.0
 10
149.3665532760488
 20
13.36396147354071
 30
0.0
 10
149.3367304957483
 20
13.39361978034094
 30
0.0
 10
149.3038769422492
 20
13.42620047764103
 30
0.0
 10
149.2558642041486
 20
13.47416841414088
 30
0.0
 10
149.1923885717488
 20
13.53845959544105
 30
0.0
 10
149.1181520835489
 20
13.62332618384062
 30
0.0
 10
149.0386624194489
 20
13.70889487604063
 30
0.0
 10
148.9781126989492
 20
13.759506282041
 30
0.0
 10
148.9468399771486
 20
13.78386574774095
 30
0.0
  0
SPLINE
  5
10C
330
21
100
AcDbEntity
  8
0
  6
Continuous
100
AcDbSpline
210
0.0
220
0.0
230
1.0
 70
     8
 71
     3
 72
    21
 73
    17
 74
     0
 42
0.000000001
 43
0.0000000001
 40
0.0
 40
0.0
 40
0.0
 40
0.0
 40
0.0014735538
 40
0.0068290702
 40
0.015786961
 40
0.0280155901
 40
0.0612988623
 40
0.1050758263
 40
0.157771668
 40
0.2176905155
 40
0.2833734193
 40
0.3538323705
 40
0.5055147376
 40
0.6663640563000001
 40
0.8319673304999999
 40
1.0
 40
1.0
 40
1.0
 40
1.0
 10
133.7768399771485
 20
13.28386574774095
 30
0.0
 10
133.7764923183486
 20
13.28386574774095
 30
0.0
 10
133.7786805431488
 20
13.28613042364077
 30
0.0
 10
133.7802093204491
 20
13.28756934104058
 30
0.0
 10
133.7854173091491
 20
13.29253484344099
 30
0.0
 10
133.7942341246489
 20
13.30112431774069
 30
0.0
 10
133.8093271008493
 20
13.31636384634066
 30
0.0
 10
133.8307380738488
 20
13.33800439134075
 30
0.0
 10
133.8568113726487
 20
13.36419853994084
 30
0.0
 10
133.8864048618489
 20
13.39406659604083
 30
0.0
 10
133.9188951299493
 20
13.42700200474064
 30
0.0
 10
133.9668793444489
 20
13.47504399334093
 30
0.0
 10
134.0316052703492
 20
13.53815943304107
 30
0.0
 10
134.1167487906487
 20
13.61214356864093
 30
0.0
 10
134.2024804992488
 20
13.69150956774092
 30
0.0
 10
134.2528101966491
 20
13.75233415114099
 30
0.0
 10
134.2768399771485
 20
13.78386574774095
 30
0.0
  0
ELLIPSE
  5
10D
330
21
100
AcDbEntity
  8
0
  6
Continuous
100
AcDbEllipse
 10
139.7618399772491
 20
25.59386574774089
 30
0.0
 11
1.224646799147353E-16
 21
0.5
 31
0.0
210
0.0
220
0.0
230
1.0
 40
1.0
 41
0.4115168461
 42
1.5707963268
  0
ELLIPSE
  5
10E
330
21
100
AcDbEntity
  8
0
  6
Continuous
100
AcDbEllipse
 10
143.4618399772489
 20
25.59386574774089
 30
0.0
 11
1.224646799147353E-16
 21
0.5
 31
0.0
210
0.0
220
0.0
230
1.0
 40
1.0
 41
-1.5707963268
 42
-0.4115168461
  0
LINE
  5
10F
330
21
100
AcDbEntity
  8
0
  6
Continuous
100
AcDbLine
 10
114.4258399771488
 20
26.59386574774089
 30
0.0
 11
114.4258399771488
 21
12.78386574774095
 31
0.0
  0
LINE
  5
110
330
21
100
AcDbEntity
  8
0
  6
Continuous
100
AcDbLine
 10
115.0058399771488
 20
12.93386574774058
 30
0.0
 11
115.0058399773488
 21
26.09386574774089
 31
0.0
  0
LINE
  5
111
330
21
100
AcDbEntity
  8
0
  6
Continuous
100
AcDbLine
 10
115.5058399809495
 20
26.09386574774089
 30
0.0
 11
115.5058399772488
 21
13.78386574774095
 31
0.0
  0
LINE
  5
112
330
21
100
AcDbEntity
  8
0
  6
Continuous
100
AcDbLine
 10
116.0408399772496
 20
20.58386574774067
 30
0.0
 11
116.0408399772496
 21
17.78386574774095
 31
0.0
  0
LINE
  5
113
330
21
100
AcDbEntity
  8
0
  6
Continuous
100
AcDbLine
 10
116.4408399772492
 20
17.78386574774095
 30
0.0
 11
116.4408399772492
 21
20.58386574774067
 31
0.0
  0
LINE
  5
114
330
21
100
AcDbEntity
  8
0
  6
Continuous
100
AcDbLine
 10
116.5408399772496
 20
22.88386574774086
 30
0.0
 11
116.5408399772496
 21
20.58386574774067
 31
0.0
  0
LINE
  5
115
330
21
100
AcDbEntity
  8
0
  6
Continuous
100
AcDbLine
 10
116.5408399772496
 20
15.38386574774086
 30
0.0
 11
116.5408399772496
 21
17.78386574774095
 31
0.0
  0
LINE
  5
116
330
21
100
AcDbEntity
  8
0
  6
Continuous
100
AcDbLine
 10
116.8408399772488
 20
15.68386574774058
 30
0.0
 11
116.8408399772488
 21
22.58386574774067
 31
0.0
  0
LINE
  5
117
330
21
100
AcDbEntity
  8
0
  6
Continuous
100
AcDbLine
 10
118.9408399772492
 20
21.58386574774067
 30
0.0
 11
118.9408399772492
 21
22.58386574774067
 31
0.0
  0
LINE
  5
118
330
21
100
AcDbEntity
  8
0
  6
Continuous
100
AcDbLine
 10
119.0308399770493
 20
18.65925140434092
 30
0.0
 11
119.0308399770493
 21
15.68386574774058
 31
0.0
  0
LINE
  5
119
330
21
100
AcDbEntity
  8
0
  6
Continuous
100
AcDbLine
 10
119.1108399771492
 20
26.09386574774089
 30
0.0
 11
119.1108399771492
 21
25.59386574774089
 31
0.0
  0
LINE
  5
11A
330
21
100
AcDbEntity
  8
0
  6
Continuous
100
AcDbLine
 10
119.390839977149
 20
24.53386574774095
 30
0.0
 11
119.390839977149
 21
22.88386574774086
 31
0.0
  0
LINE
  5
11B
330
21
100
AcDbEntity
  8
0
  6
Continuous
100
AcDbLine
 10
119.4908399770493
 20
15.68386574774058
 30
0.0
 11
119.4908399770493
 21
18.65925140434092
 31
0.0
  0
LINE
  5
11C
330
21
100
AcDbEntity
  8
0
  6
Continuous
100
AcDbLine
 10
119.6908399771492
 20
22.58386574774067
 30
0.0
 11
119.6908399771492
 21
24.23386574774077
 31
0.0
  0
LINE
  5
11D
330
21
100
AcDbEntity
  8
0
  6
Continuous
100
AcDbLine
 10
120.0508399770488
 20
18.65925140434092
 30
0.0
 11
120.0508399770488
 21
15.68386574774058
 31
0.0
  0
LINE
  5
11E
330
21
100
AcDbEntity
  8
0
  6
Continuous
100
AcDbLine
 10
120.4908399772494
 20
25.59386574774089
 30
0.0
 11
120.4908399772494
 21
24.53386574774095
 31
0.0
  0
LINE
  5
11F
330
21
100
AcDbEntity
  8
0
  6
Continuous
100
AcDbLine
 10
120.5108399770488
 20
15.68386574774058
 30
0.0
 11
120.5108399770488
 21
18.65925140434092
 31
0.0
  0
LINE
  5
120
330
21
100
AcDbEntity
  8
0
  6
Continuous
100
AcDbLine
 10
120.7908399772496
 20
24.23386574774077
 30
0.0
 11
120.7908399772496
 21
26.09386574774089
 31
0.0
  0
LINE
  5
121
330
21
100
AcDbEntity
  8
0
  6
Continuous
100
AcDbLine
 10
121.0708399770492
 20
18.65925140434092
 30
0.0
 11
121.0708399770492
 21
15.68386574774058
 31
0.0
  0
LINE
  5
122
330
21
100
AcDbEntity
  8
0
  6
Continuous
100
AcDbLine
 10
121.5308399770493
 20
15.68386574774058
 30
0.0
 11
121.5308399770493
 21
18.65925140434092
 31
0.0
  0
LINE
  5
123
330
21
100
AcDbEntity
  8
0
  6
Continuous
100
AcDbLine
 10
122.0908399770487
 20
18.65925140434092
 30
0.0
 11
122.0908399770487
 21
15.68386574774058
 31
0.0
  0
LINE
  5
124
330
21
100
AcDbEntity
  8
0
  6
Continuous
100
AcDbLine
 10
122.5508399770488
 20
15.68386574774058
 30
0.0
 11
122.5508399770488
 21
18.65925140434092
 31
0.0
  0
LINE
  5
125
330
21
100
AcDbEntity
  8
0
  6
Continuous
100
AcDbLine
 10
123.1108399770492
 20
18.65925140434092
 30
0.0
 11
123.1108399770492
 21
15.68386574774058
 31
0.0
  0
LINE
  5
126
330
21
100
AcDbEntity
  8
0
  6
Continuous
100
AcDbLine
 10
123.5708399770492
 20
15.68386574774058
 30
0.0
 11
123.5708399770492
 21
18.65925140434092
 31
0.0
  0
LINE
  5
127
330
21
100
AcDbEntity
  8
0
  6
Continuous
100
AcDbLine
 10
124.1308399770496
 20
18.65925140434092
 30
0.0
 11
124.1308399770496
 21
15.68386574774058
 31
0.0
  0
LINE
  5
128
330
21
100
AcDbEntity
  8
0
  6
Continuous
100
AcDbLine
 10
124.5908399770487
 20
15.68386574774058
 30
0.0
 11
124.5908399770487
 21
18.65925140434092
 31
0.0
  0
LINE
  5
129
330
21
100
AcDbEntity
  8
0
  6
Continuous
100
AcDbLine
 10
124.890839977249
 20
24.23386574774077
 30
0.0
 11
124.890839977249
 21
26.09386574774089
 31
0.0
  0
LINE
  5
12A
330
21
100
AcDbEntity
  8
0
  6
Continuous
100
AcDbLine
 10
125.1508399770491
 20
18.65925140434092
 30
0.0
 11
125.1508399770491
 21
15.68386574774058
 31
0.0
  0
LINE
  5
12B
330
21
100
AcDbEntity
  8
0
  6
Continuous
100
AcDbLine
 10
125.1908399772492
 20
24.53386574774095
 30
0.0
 11
125.1908399772492
 21
25.59386574774089
 31
0.0
  0
LINE
  5
12C
330
21
100
AcDbEntity
  8
0
  6
Continuous
100
AcDbLine
 10
125.6108399770492
 20
15.68386574774058
 30
0.0
 11
125.6108399770492
 21
18.65925140434092
 31
0.0
  0
LINE
  5
12D
330
21
100
AcDbEntity
  8
0
  6
Continuous
100
AcDbLine
 10
125.9908399771493
 20
24.23386574774077
 30
0.0
 11
125.9908399771493
 21
22.58386574774067
 31
0.0
  0
LINE
  5
12E
330
21
100
AcDbEntity
  8
0
  6
Continuous
100
AcDbLine
 10
126.1708399770487
 20
18.65925140434092
 30
0.0
 11
126.1708399770487
 21
15.68386574774058
 31
0.0
  0
LINE
  5
12F
330
21
100
AcDbEntity
  8
0
  6
Continuous
100
AcDbLine
 10
126.2908399771495
 20
22.88386574774086
 30
0.0
 11
126.2908399771495
 21
24.53386574774095
 31
0.0
  0
LINE
  5
130
330
21
100
AcDbEntity
  8
0
  6
Continuous
100
AcDbLine
 10
126.5708399771493
 20
25.59386574774089
 30
0.0
 11
126.5708399771493
 21
26.09386574774089
 31
0.0
  0
LINE
  5
131
330
21
100
AcDbEntity
  8
0
  6
Continuous
100
AcDbLine
 10
126.6308399770496
 20
15.68386574774058
 30
0.0
 11
126.6308399770496
 21
18.65925140434092
 31
0.0
  0
LINE
  5
132
330
21
100
AcDbEntity
  8
0
  6
Continuous
100
AcDbLine
 10
126.7408399772494
 20
21.58386574774067
 30
0.0
 11
126.7408399772494
 21
22.58386574774067
 31
0.0
  0
LINE
  5
133
330
21
100
AcDbEntity
  8
0
  6
Continuous
100
AcDbLine
 10
116.8408399772488
 20
22.58386574774067
 30
0.0
 11
116.5408399772496
 21
22.88386574774086
 31
0.0
  0
LINE
  5
134
330
21
100
AcDbEntity
  8
0
  6
Continuous
100
AcDbLine
 10
119.390839977149
 20
22.88386574774086
 30
0.0
 11
119.6908399771492
 21
22.58386574774067
 31
0.0
  0
LINE
  5
135
330
21
100
AcDbEntity
  8
0
  6
Continuous
100
AcDbLine
 10
119.390839977149
 20
24.53386574774095
 30
0.0
 11
119.6908399771492
 21
24.23386574774077
 31
0.0
  0
LINE
  5
136
330
21
100
AcDbEntity
  8
0
  6
Continuous
100
AcDbLine
 10
128.8408399772488
 20
22.58386574774067
 30
0.0
 11
128.8408399772488
 21
15.68386574774058
 31
0.0
  0
LINE
  5
137
330
21
100
AcDbEntity
  8
0
  6
Continuous
100
AcDbLine
 10
129.140839977249
 20
15.38386574774086
 30
0.0
 11
129.140839977249
 21
17.78386574774095
 31
0.0
  0
LINE
  5
138
330
21
100
AcDbEntity
  8
0
  6
Continuous
100
AcDbLine
 10
129.140839977249
 20
20.58386574774067
 30
0.0
 11
129.140839977249
 21
22.88386574774086
 31
0.0
  0
LINE
  5
139
330
21
100
AcDbEntity
  8
0
  6
Continuous
100
AcDbLine
 10
129.2408399772494
 20
20.58386574774067
 30
0.0
 11
129.2408399772494
 21
17.78386574774095
 31
0.0
  0
LINE
  5
13A
330
21
100
AcDbEntity
  8
0
  6
Continuous
100
AcDbLine
 10
129.640839977249
 20
17.78386574774095
 30
0.0
 11
129.640839977249
 21
20.58386574774067
 31
0.0
  0
LINE
  5
13B
330
21
100
AcDbEntity
  8
0
  6
Continuous
100
AcDbLine
 10
130.1758399771488
 20
13.78386574774095
 30
0.0
 11
130.1758399771488
 21
26.09386574774089
 31
0.0
  0
LINE
  5
13C
330
21
100
AcDbEntity
  8
0
  6
Continuous
100
AcDbLine
 10
130.6758399771488
 20
26.09386574774089
 30
0.0
 11
130.6758399771488
 21
12.93386574774058
 31
0.0
  0
LINE
  5
13D
330
21
100
AcDbEntity
  8
0
  6
Continuous
100
AcDbLine
 10
131.0958399771489
 20
12.78386574774095
 30
0.0
 11
131.0958399771489
 21
26.59386574774089
 31
0.0
  0
LINE
  5
13E
330
21
100
AcDbEntity
  8
0
  6
Continuous
100
AcDbLine
 10
125.1908399772492
 20
24.53386574774095
 30
0.0
 11
124.890839977249
 21
24.23386574774077
 31
0.0
  0
LINE
  5
13F
330
21
100
AcDbEntity
  8
0
  6
Continuous
100
AcDbLine
 10
116.8408399772488
 20
15.68386574774058
 30
0.0
 11
116.5408399772496
 21
15.38386574774086
 31
0.0
  0
LINE
  5
140
330
21
100
AcDbEntity
  8
0
  6
Continuous
100
AcDbLine
 10
126.2908399771495
 20
24.53386574774095
 30
0.0
 11
125.9908399771493
 21
24.23386574774077
 31
0.0
  0
LINE
  5
141
330
21
100
AcDbEntity
  8
0
  6
Continuous
100
AcDbLine
 10
125.9908399771493
 20
22.58386574774067
 30
0.0
 11
126.2908399771495
 21
22.88386574774086
 31
0.0
  0
LINE
  5
142
330
21
100
AcDbEntity
  8
0
  6
Continuous
100
AcDbLine
 10
128.8408399772488
 20
22.58386574774067
 30
0.0
 11
129.140839977249
 21
22.88386574774086
 31
0.0
  0
LINE
  5
143
330
21
100
AcDbEntity
  8
0
  6
Continuous
100
AcDbLine
 10
114.4258399771488
 20
12.78386574774095
 30
0.0
 11
131.0958399771489
 21
12.78386574774095
 31
0.0
  0
LINE
  5
144
330
21
100
AcDbEntity
  8
0
  6
Continuous
100
AcDbLine
 10
114.4258399771488
 20
12.93386574774058
 30
0.0
 11
131.0958399771489
 21
12.93386574774058
 31
0.0
  0
LINE
  5
145
330
21
100
AcDbEntity
  8
0
  6
Continuous
100
AcDbLine
 10
130.6758399771488
 20
13.28386574774095
 30
0.0
 11
115.0058399771488
 21
13.28386574774095
 31
0.0
  0
LINE
  5
146
330
21
100
AcDbEntity
  8
0
  6
Continuous
100
AcDbLine
 10
115.5058399772488
 20
13.78386574774095
 30
0.0
 11
130.1758399771488
 21
13.78386574774095
 31
0.0
  0
LINE
  5
147
330
21
100
AcDbEntity
  8
0
  6
Continuous
100
AcDbLine
 10
116.5408399772496
 20
15.38386574774086
 30
0.0
 11
129.140839977249
 21
15.38386574774086
 31
0.0
  0
LINE
  5
148
330
21
100
AcDbEntity
  8
0
  6
Continuous
100
AcDbLine
 10
128.8408399772488
 20
15.68386574774058
 30
0.0
 11
116.8408399772488
 21
15.68386574774058
 31
0.0
  0
LINE
  5
149
330
21
100
AcDbEntity
  8
0
  6
Continuous
100
AcDbLine
 10
129.140839977249
 20
15.38386574774086
 30
0.0
 11
128.8408399772488
 21
15.68386574774058
 31
0.0
  0
LINE
  5
14A
330
21
100
AcDbEntity
  8
0
  6
Continuous
100
AcDbLine
 10
120.4908399772494
 20
24.53386574774095
 30
0.0
 11
120.7908399772496
 21
24.23386574774077
 31
0.0
  0
LINE
  5
14B
330
21
100
AcDbEntity
  8
0
  6
Continuous
100
AcDbLine
 10
116.0408399772496
 20
17.78386574774095
 30
0.0
 11
116.8408399772488
 21
17.78386574774095
 31
0.0
  0
LINE
  5
14C
330
21
100
AcDbEntity
  8
0
  6
Continuous
100
AcDbLine
 10
128.8408399772488
 20
17.78386574774095
 30
0.0
 11
129.640839977249
 21
17.78386574774095
 31
0.0
  0
LINE
  5
14D
330
21
100
AcDbEntity
  8
0
  6
Continuous
100
AcDbLine
 10
126.6308399770496
 20
18.65925140434092
 30
0.0
 11
126.1708399770487
 21
18.65925140434092
 31
0.0
  0
LINE
  5
14E
330
21
100
AcDbEntity
  8
0
  6
Continuous
100
AcDbLine
 10
125.6108399770492
 20
18.65925140434092
 30
0.0
 11
125.1508399770491
 21
18.65925140434092
 31
0.0
  0
LINE
  5
14F
330
21
100
AcDbEntity
  8
0
  6
Continuous
100
AcDbLine
 10
124.5908399770487
 20
18.65925140434092
 30
0.0
 11
124.1308399770496
 21
18.65925140434092
 31
0.0
  0
LINE
  5
150
330
21
100
AcDbEntity
  8
0
  6
Continuous
100
AcDbLine
 10
123.5708399770492
 20
18.65925140434092
 30
0.0
 11
123.1108399770492
 21
18.65925140434092
 31
0.0
  0
LINE
  5
151
330
21
100
AcDbEntity
  8
0
  6
Continuous
100
AcDbLine
 10
122.5508399770488
 20
18.65925140434092
 30
0.0
 11
122.0908399770487
 21
18.65925140434092
 31
0.0
  0
LINE
  5
152
330
21
100
AcDbEntity
  8
0
  6
Continuous
100
AcDbLine
 10
121.5308399770493
 20
18.65925140434092
 30
0.0
 11
121.0708399770492
 21
18.65925140434092
 31
0.0
  0
LINE
  5
153
330
21
100
AcDbEntity
  8
0
  6
Continuous
100
AcDbLine
 10
120.5108399770488
 20
18.65925140434092
 30
0.0
 11
120.0508399770488
 21
18.65925140434092
 31
0.0
  0
LINE
  5
154
330
21
100
AcDbEntity
  8
0
  6
Continuous
100
AcDbLine
 10
119.4908399770493
 20
18.65925140434092
 30
0.0
 11
119.0308399770493
 21
18.65925140434092
 31
0.0
  0
LINE
  5
155
330
21
100
AcDbEntity
  8
0
  6
Continuous
100
AcDbLine
 10
116.0408399772496
 20
20.58386574774067
 30
0.0
 11
116.8408399772488
 21
20.58386574774067
 31
0.0
  0
LINE
  5
156
330
21
100
AcDbEntity
  8
0
  6
Continuous
100
AcDbLine
 10
128.8408399772488
 20
20.58386574774067
 30
0.0
 11
129.640839977249
 21
20.58386574774067
 31
0.0
  0
LINE
  5
157
330
21
100
AcDbEntity
  8
0
  6
Continuous
100
AcDbLine
 10
116.8408399379496
 20
21.58386574774067
 30
0.0
 11
118.9408399772492
 21
21.58386574774067
 31
0.0
  0
LINE
  5
158
330
21
100
AcDbEntity
  8
0
  6
Continuous
100
AcDbLine
 10
126.7408399772494
 20
21.58386574774067
 30
0.0
 11
128.8408400284488
 21
21.58386574774067
 31
0.0
  0
LINE
  5
159
330
21
100
AcDbEntity
  8
0
  6
Continuous
100
AcDbLine
 10
128.8408399772488
 20
22.58386574774067
 30
0.0
 11
125.9908399771493
 21
22.58386574774067
 31
0.0
  0
LINE
  5
15A
330
21
100
AcDbEntity
  8
0
  6
Continuous
100
AcDbLine
 10
116.8408399772488
 20
22.58386574774067
 30
0.0
 11
119.6908399771492
 21
22.58386574774067
 31
0.0
  0
LINE
  5
15B
330
21
100
AcDbEntity
  8
0
  6
Continuous
100
AcDbLine
 10
129.140839977249
 20
22.88386574774086
 30
0.0
 11
126.2908399771495
 21
22.88386574774086
 31
0.0
  0
LINE
  5
15C
330
21
100
AcDbEntity
  8
0
  6
Continuous
100
AcDbLine
 10
119.390839977149
 20
22.88386574774086
 30
0.0
 11
116.5408399772496
 21
22.88386574774086
 31
0.0
  0
LINE
  5
15D
330
21
100
AcDbEntity
  8
0
  6
Continuous
100
AcDbLine
 10
119.6908399771492
 20
23.53386574774095
 30
0.0
 11
125.9908399771493
 21
23.53386574774095
 31
0.0
  0
LINE
  5
15E
330
21
100
AcDbEntity
  8
0
  6
Continuous
100
AcDbLine
 10
125.9908399771493
 20
24.23386574774077
 30
0.0
 11
124.890839977249
 21
24.23386574774077
 31
0.0
  0
LINE
  5
15F
330
21
100
AcDbEntity
  8
0
  6
Continuous
100
AcDbLine
 10
120.7908399772496
 20
24.23386574774077
 30
0.0
 11
119.6908399771492
 21
24.23386574774077
 31
0.0
  0
LINE
  5
160
330
21
100
AcDbEntity
  8
0
  6
Continuous
100
AcDbLine
 10
126.2908399771495
 20
24.53386574774095
 30
0.0
 11
125.1908399772492
 21
24.53386574774095
 31
0.0
  0
LINE
  5
161
330
21
100
AcDbEntity
  8
0
  6
Continuous
100
AcDbLine
 10
120.4908399772494
 20
24.53386574774095
 30
0.0
 11
119.390839977149
 21
24.53386574774095
 31
0.0
  0
LINE
  5
162
330
21
100
AcDbEntity
  8
0
  6
Continuous
100
AcDbLine
 10
124.890839977249
 20
25.38386574774086
 30
0.0
 11
120.7908399772496
 21
25.38386574774086
 31
0.0
  0
LINE
  5
163
330
21
100
AcDbEntity
  8
0
  6
Continuous
100
AcDbLine
 10
126.5708399771493
 20
25.59386574774089
 30
0.0
 11
125.1908399772492
 21
25.59386574774089
 31
0.0
  0
LINE
  5
164
330
21
100
AcDbEntity
  8
0
  6
Continuous
100
AcDbLine
 10
120.4908399772494
 20
25.59386574774089
 30
0.0
 11
119.1108399771492
 21
25.59386574774089
 31
0.0
  0
LINE
  5
165
330
21
100
AcDbEntity
  8
0
  6
Continuous
100
AcDbLine
 10
115.0058399773488
 20
26.09386574774089
 30
0.0
 11
130.6758399771488
 21
26.09386574774089
 31
0.0
  0
LINE
  5
166
330
21
100
AcDbEntity
  8
0
  6
Continuous
100
AcDbLine
 10
131.0958399771489
 20
26.59386574774089
 30
0.0
 11
114.4258399771488
 21
26.59386574774089
 31
0.0
  0
SPLINE
  5
167
330
21
100
AcDbEntity
  8
0
  6
Continuous
100
AcDbSpline
210
0.0
220
0.0
230
1.0
 70
     8
 71
     3
 72
    21
 73
    17
 74
     0
 42
0.000000001
 43
0.0000000001
 40
0.0
 40
0.0
 40
0.0
 40
0.0
 40
0.0014705039
 40
0.0068372617
 40
0.0158118114
 40
0.0280526311
 40
0.0613501697
 40
0.1051465002
 40
0.1578723199
 40
0.2178171851
 40
0.2835234876
 40
0.3539800182
 40
0.5055433305
 40
0.6663204777
 40
0.8319629499
 40
1.0
 40
1.0
 40
1.0
 40
1.0
 10
130.6758399771488
 20
13.28386574774095
 30
0.0
 10
130.6758399771488
 20
13.28351885124084
 30
0.0
 10
130.6735688563494
 20
13.28570133874064
 30
0.0
 10
130.6721432879494
 20
13.28724892444097
 30
0.0
 10
130.6671757124495
 20
13.29246761624063
 30
0.0
 10
130.6585930867495
 20
13.30130351064054
 30
0.0
 10
130.6433587768488
 20
13.31641296214093
 30
0.0
 10
130.6217320379492
 20
13.33785405404069
 30
0.0
 10
130.595553276049
 20
13.36396147354071
 30
0.0
 10
130.5657304957494
 20
13.39361978034094
 30
0.0
 10
130.5328769422485
 20
13.42620047764103
 30
0.0
 10
130.4848642041488
 20
13.47416841414088
 30
0.0
 10
130.421388571749
 20
13.53845959544105
 30
0.0
 10
130.3471520835492
 20
13.62332618384062
 30
0.0
 10
130.2676624194492
 20
13.70889487604063
 30
0.0
 10
130.2071126989485
 20
13.759506282041
 30
0.0
 10
130.1758399771488
 20
13.78386574774095
 30
0.0
  0
SPLINE
  5
168
330
21
100
AcDbEntity
  8
0
  6
Continuous
100
AcDbSpline
210
0.0
220
0.0
230
1.0
 70
     8
 71
     3
 72
    21
 73
    17
 74
     0
 42
0.000000001
 43
0.0000000001
 40
0.0
 40
0.0
 40
0.0
 40
0.0
 40
0.0014735538
 40
0.0068290702
 40
0.015786961
 40
0.0280155901
 40
0.0612988623
 40
0.1050758263
 40
0.157771668
 40
0.2176905155
 40
0.2833734193
 40
0.3538323705
 40
0.5055147376
 40
0.6663640563000001
 40
0.8319673304999999
 40
1.0
 40
1.0
 40
1.0
 40
1.0
 10
115.0058399771488
 20
13.28386574774095
 30
0.0
 10
115.0054923183488
 20
13.28386574774095
 30
0.0
 10
115.007680543149
 20
13.28613042364077
 30
0.0
 10
115.0092093204494
 20
13.28756934104058
 30
0.0
 10
115.0144173091485
 20
13.29253484344099
 30
0.0
 10
115.0232341246492
 20
13.30112431774069
 30
0.0
 10
115.0383271008486
 20
13.31636384634066
 30
0.0
 10
115.0597380738491
 20
13.33800439134075
 30
0.0
 10
115.085811372649
 20
13.36419853994084
 30
0.0
 10
115.1154048618491
 20
13.39406659604083
 30
0.0
 10
115.1478951299487
 20
13.42700200474064
 30
0.0
 10
115.1958793444492
 20
13.47504399334093
 30
0.0
 10
115.2606052703486
 20
13.53815943304107
 30
0.0
 10
115.3457487906489
 20
13.61214356864093
 30
0.0
 10
115.4314804992491
 20
13.69150956774092
 30
0.0
 10
115.4818101966493
 20
13.75233415114099
 30
0.0
 10
115.5058399771488
 20
13.78386574774095
 30
0.0
  0
ELLIPSE
  5
169
330
21
100
AcDbEntity
  8
0
  6
Continuous
100
AcDbEllipse
 10
120.9908399772494
 20
25.59386574774089
 30
0.0
 11
1.224646799147353E-16
 21
0.5
 31
0.0
210
0.0
220
0.0
230
1.0
 40
1.0
 41
0.4115168461
 42
1.5707963268
  0
ELLIPSE
  5
16A
330
21
100
AcDbEntity
  8
0
  6
Continuous
100
AcDbEllipse
 10
124.6908399772492
 20
25.59386574774089
 30
0.0
 11
1.224646799147353E-16
 21
0.5
 31
0.0
210
0.0
220
0.0
230
1.0
 40
1.0
 41
-1.5707963268
 42
-0.4115168461
  0
MTEXT
  5
16B
330
21
100
AcDbEntity
  8
0
 62
     7
370
    -3
100
AcDbMText
 10
141.5318399771486
 20
28.59842702647165
 30
0.0
 40
1.5
 41
16.67000000000007
 46
0.0
 71
     2
 72
     5
  1
LAN 2
 73
     1
 44
1.0
1001
AcadAnnotative
1000
AnnotativeData
1002
{
1070
     1
1070
     0
1002
}
  0
MTEXT
  5
16D
330
21
100
AcDbEntity
  8
0
 62
     7
370
    -3
100
AcDbMText
 10
122.7608399771489
 20
28.59842702647165
 30
0.0
 40
1.5
 41
16.67000000000007
 46
0.0
 71
     2
 72
     5
  1
LAN 1
 73
     1
 44
1.0
1001
AcadAnnotative
1000
AnnotativeData
1002
{
1070
     1
1070
     0
1002
}
  0
LINE
  5
16E
330
21
100
AcDbEntity
  8
0
100
AcDbLine
 10
96.77103820533921
 20
18.33860612397348
 30
0.0
 11
96.77103820533921
 21
13.78400466279891
 31
0.0
  0
LINE
  5
16F
330
21
100
AcDbEntity
  8
0
100
AcDbLine
 10
96.77103820533921
 20
13.78400466279891
 30
0.0
 11
94.6749588641942
 21
13.78400466279891
 31
0.0
  0
LINE
  5
170
330
21
100
AcDbEntity
  8
0
100
AcDbLine
 10
94.6749588641942
 20
13.78400466279891
 30
0.0
 11
94.6749588641942
 21
18.33860612397348
 31
0.0
  0
LINE
  5
171
330
21
100
AcDbEntity
  8
0
100
AcDbLine
 10
94.6749588641942
 20
18.33860612397348
 30
0.0
 11
96.77103820533921
 21
18.33860612397348
 31
0.0
  0
LINE
  5
172
330
21
100
AcDbEntity
  8
0
100
AcDbLine
 10
100.2710382053392
 20
18.33860612397348
 30
0.0
 11
100.2710382053392
 21
13.78400466279891
 31
0.0
  0
LINE
  5
173
330
21
100
AcDbEntity
  8
0
100
AcDbLine
 10
100.2710382053392
 20
13.78400466279891
 30
0.0
 11
98.1749588641942
 21
13.78400466279891
 31
0.0
  0
LINE
  5
174
330
21
100
AcDbEntity
  8
0
100
AcDbLine
 10
98.1749588641942
 20
13.78400466279891
 30
0.0
 11
98.1749588641942
 21
18.33860612397348
 31
0.0
  0
LINE
  5
175
330
21
100
AcDbEntity
  8
0
100
AcDbLine
 10
98.1749588641942
 20
18.33860612397348
 30
0.0
 11
100.2710382053392
 21
18.33860612397348
 31
0.0
  0
LINE
  5
176
330
21
100
AcDbEntity
  8
0
100
AcDbLine
 10
103.7710382053392
 20
18.33860612397348
 30
0.0
 11
103.7710382053392
 21
13.78400466279891
 31
0.0
  0
LINE
  5
177
330
21
100
AcDbEntity
  8
0
100
AcDbLine
 10
103.7710382053392
 20
13.78400466279891
 30
0.0
 11
101.6749588641942
 21
13.78400466279891
 31
0.0
  0
LINE
  5
178
330
21
100
AcDbEntity
  8
0
100
AcDbLine
 10
101.6749588641942
 20
13.78400466279891
 30
0.0
 11
101.6749588641942
 21
18.33860612397348
 31
0.0
  0
LINE
  5
179
330
21
100
AcDbEntity
  8
0
100
AcDbLine
 10
101.6749588641942
 20
18.33860612397348
 30
0.0
 11
103.7710382053392
 21
18.33860612397348
 31
0.0
  0
LINE
  5
17A
330
21
100
AcDbEntity
  8
0
100
AcDbLine
 10
107.2710382053392
 20
18.33860612397348
 30
0.0
 11
107.2710382053392
 21
13.78400466279891
 31
0.0
  0
LINE
  5
17B
330
21
100
AcDbEntity
  8
0
100
AcDbLine
 10
107.2710382053392
 20
13.78400466279891
 30
0.0
 11
105.1749588641942
 21
13.78400466279891
 31
0.0
  0
LINE
  5
17C
330
21
100
AcDbEntity
  8
0
100
AcDbLine
 10
105.1749588641942
 20
13.78400466279891
 30
0.0
 11
105.1749588641942
 21
18.33860612397348
 31
0.0
  0
LINE
  5
17D
330
21
100
AcDbEntity
  8
0
100
AcDbLine
 10
105.1749588641942
 20
18.33860612397348
 30
0.0
 11
107.2710382053392
 21
18.33860612397348
 31
0.0
  0
LINE
  5
17E
330
21
100
AcDbEntity
  8
0
 62
     7
370
    -3
100
AcDbLine
 10
2.398547512333153
 20
47.48045595420808
 30
0.0
 11
2.398547512333153
 21
12.78386574774095
 31
0.0
  0
LINE
  5
17F
330
21
100
AcDbEntity
  8
0
 62
     7
370
    -3
100
AcDbLine
 10
22.03093511276984
 20
47.48045595420808
 30
0.0
 11
2.398547512333153
 21
47.48045595420808
 31
0.0
  0
LINE
  5
180
330
21
100
AcDbEntity
  8
0
 62
     7
370
    -3
100
AcDbLine
 10
2.398547512333153
 20
12.78386574774095
 30
0.0
 11
2.398547512333153
 21
12.78386574774095
 31
0.0
  0
LINE
  5
181
330
21
100
AcDbEntity
  8
0
 62
     7
370
    -3
100
AcDbLine
 10
22.03093511276984
 20
47.48045595420808
 30
0.0
 11
22.03093511276984
 21
12.78386574774095
 31
0.0
  0
LINE
  5
182
330
21
100
AcDbEntity
  8
0
 62
     7
370
    -3
100
AcDbLine
 10
22.03093511276984
 20
12.78386574774095
 30
0.0
 11
2.398547512333153
 21
12.78386574774095
 31
0.0
  0
LINE
  5
183
330
21
100
AcDbEntity
  8
0
 62
     7
370
    -3
100
AcDbLine
 10
22.39854751233315
 20
47.48045595420808
 30
0.0
 11
22.39854751233315
 21
12.78386574774095
 31
0.0
  0
LINE
  5
184
330
21
100
AcDbEntity
  8
0
 62
     7
370
    -3
100
AcDbLine
 10
42.03093511276984
 20
47.48045595420808
 30
0.0
 11
22.39854751233315
 21
47.48045595420808
 31
0.0
  0
LINE
  5
185
330
21
100
AcDbEntity
  8
0
 62
     7
370
    -3
100
AcDbLine
 10
22.39854751233315
 20
12.78386574774095
 30
0.0
 11
22.39854751233315
 21
12.78386574774095
 31
0.0
  0
LINE
  5
186
330
21
100
AcDbEntity
  8
0
 62
     7
370
    -3
100
AcDbLine
 10
42.03093511276984
 20
47.48045595420808
 30
0.0
 11
42.03093511276984
 21
12.78386574774095
 31
0.0
  0
LINE
  5
187
330
21
100
AcDbEntity
  8
0
 62
     7
370
    -3
100
AcDbLine
 10
42.03093511276984
 20
12.78386574774095
 30
0.0
 11
22.39854751233315
 21
12.78386574774095
 31
0.0
  0
LINE
  5
188
330
21
100
AcDbEntity
  8
0
 62
     7
370
    -3
100
AcDbLine
 10
42.39854751233315
 20
47.48045595420808
 30
0.0
 11
42.39854751233315
 21
12.78386574774095
 31
0.0
  0
LINE
  5
189
330
21
100
AcDbEntity
  8
0
 62
     7
370
    -3
100
AcDbLine
 10
62.03093511276984
 20
47.48045595420808
 30
0.0
 11
42.39854751233315
 21
47.48045595420808
 31
0.0
  0
LINE
  5
18A
330
21
100
AcDbEntity
  8
0
 62
     7
370
    -3
100
AcDbLine
 10
42.39854751233315
 20
12.78386574774095
 30
0.0
 11
42.39854751233315
 21
12.78386574774095
 31
0.0
  0
LINE
  5
18B
330
21
100
AcDbEntity
  8
0
 62
     7
370
    -3
100
AcDbLine
 10
62.03093511276984
 20
47.48045595420808
 30
0.0
 11
62.03093511276984
 21
12.78386574774095
 31
0.0
  0
LINE
  5
18C
330
21
100
AcDbEntity
  8
0
 62
     7
370
    -3
100
AcDbLine
 10
62.03093511276984
 20
12.78386574774095
 30
0.0
 11
42.39854751233315
 21
12.78386574774095
 31
0.0
  0
LINE
  5
18D
330
21
100
AcDbEntity
  8
0
 62
     7
370
    -3
100
AcDbLine
 10
62.3985475123327
 20
47.48045595420808
 30
0.0
 11
62.3985475123327
 21
12.78386574774095
 31
0.0
  0
LINE
  5
18E
330
21
100
AcDbEntity
  8
0
 62
     7
370
    -3
100
AcDbLine
 10
82.03093511276984
 20
47.48045595420808
 30
0.0
 11
62.3985475123327
 21
47.48045595420808
 31
0.0
  0
LINE
  5
18F
330
21
100
AcDbEntity
  8
0
 62
     7
370
    -3
100
AcDbLine
 10
62.3985475123327
 20
12.78386574774095
 30
0.0
 11
62.3985475123327
 21
12.78386574774095
 31
0.0
  0
LINE
  5
190
330
21
100
AcDbEntity
  8
0
 62
     7
370
    -3
100
AcDbLine
 10
82.03093511276984
 20
47.48045595420808
 30
0.0
 11
82.03093511276984
 21
12.78386574774095
 31
0.0
  0
LINE
  5
191
330
21
100
AcDbEntity
  8
0
 62
     7
370
    -3
100
AcDbLine
 10
82.03093511276984
 20
12.78386574774095
 30
0.0
 11
62.3985475123327
 21
12.78386574774095
 31
0.0
  0
MTEXT
  5
192
330
21
100
AcDbEntity
  8
0
 62
     7
370
    -3
100
AcDbMText
 10
89.19170312785445
 20
14.37613542374856
 30
0.0
 40
1.0
 41
5.890600199967594
 46
0.0
 71
     7
 72
     5
  1
+12V
 11
6.123233995736766E-17
 21
1.0
 31
0.0
 73
     1
 44
1.0
1001
AcadAnnotative
1000
AnnotativeData
1002
{
1070
     1
1070
     0
1002
}
  0
MTEXT
  5
193
330
21
100
AcDbEntity
  8
0
 62
     7
370
    -3
100
AcDbMText
 10
92.90014698976393
 20
15.56749111193085
 30
0.0
 40
1.0
 41
6.823712153551696
 46
1.504092769440655
 71
     7
 72
     5
  1
1
 11
6.123233995736766E-17
 21
1.0
 31
0.0
 73
     1
 44
1.0
1001
AcadAnnotative
1000
AnnotativeData
1002
{
1070
     1
1070
     0
1002
}
  0
MTEXT
  5
194
330
21
100
AcDbEntity
  8
0
 62
     7
370
    -3
100
AcDbMText
 10
96.09353075173931
 20
15.56749111193085
 30
0.0
 40
1.0
 41
6.823712153551696
 46
1.504092769440655
 71
     7
 72
     5
  1
2
 11
6.123233995736766E-17
 21
1.0
 31
0.0
 73
     1
 44
1.0
1001
AcadAnnotative
1000
AnnotativeData
1002
{
1070
     1
1070
     0
1002
}
  0
MTEXT
  5
195
330
21
100
AcDbEntity
  8
0
 62
     7
370
    -3
100
AcDbMText
 10
99.64507520505322
 20
15.56749111193085
 30
0.0
 40
1.0
 41
6.823712153551696
 46
1.504092769440655
 71
     7
 72
     5
  1
3
 11
6.123233995736766E-17
 21
1.0
 31
0.0
 73
     1
 44
1.0
1001
AcadAnnotative
1000
AnnotativeData
1002
{
1070
     1
1070
     0
1002
}
  0
MTEXT
  5
196
330
21
100
AcDbEntity
  8
0
 62
     7
370
    -3
100
AcDbMText
 10
103.1538299661588
 20
15.56749111193085
 30
0.0
 40
1.0
 41
6.823712153551696
 46
1.504092769440655
 71
     7
 72
     5
  1
4
 11
6.123233995736766E-17
 21
1.0
 31
0.0
 73
     1
 44
1.0
1001
AcadAnnotative
1000
AnnotativeData
1002
{
1070
     1
1070
     0
1002
}
  0
MTEXT
  5
197
330
21
100
AcDbEntity
  8
0
 62
     7
370
    -3
100
AcDbMText
 10
106.7407451547788
 20
14.57431382930736
 30
0.0
 40
1.0
 41
6.823712153551696
 46
1.504092769440655
 71
     7
 72
     5
  1
GND
 11
6.123233995736766E-17
 21
1.0
 31
0.0
 73
     1
 44
1.0
1001
AcadAnnotative
1000
AnnotativeData
1002
{
1070
     1
1070
     0
1002
}
  0
MTEXT
  5
198
330
21
100
AcDbEntity
  8
0
 62
     7
370
    -3
100
AcDbMText
 10
97.76077670746417
 20
22.50217224605831
 30
0.0
 40
1.5
 41
18.9872127560302
 46
0.0
 71
     2
 72
     5
  1
Digital Inputs
 73
     1
 44
1.0
1001
AcadAnnotative
1000
AnnotativeData
1002
{
1070
     1
1070
     0
1002
}
  0
MTEXT
  5
199
330
21
100
AcDbEntity
  8
0
 62
     7
370
    -3
100
AcDbMText
 10
97.477064133157
 20
19.83969649775145
 30
0.0
 40
1.0
 41
10.15999999999985
 46
1.199858502236946
 71
     2
 72
     5
  1
3.3V .. 24VDC
 73
     1
 44
1.0
1001
AcadAnnotative
1000
AnnotativeData
1002
{
1070
     1
1070
     0
1002
}
  0
MTEXT
  5
19A
330
21
100
AcDbEntity
  8
0
 62
     7
370
    -3
100
AcDbMText
 10
11.81376001329318
 20
46.75431345646939
 30
0.0
 40
2.5
 41
18.9872127560302
 46
0.0
 71
     2
 72
     5
  1
Slot 1
 73
     1
 44
1.0
1001
AcadAnnotative
1000
AnnotativeData
1002
{
1070
     1
1070
     0
1002
}
  0
MTEXT
  5
19B
330
21
100
AcDbEntity
  8
0
 62
     7
370
    -3
100
AcDbMText
 10
31.79500867996012
 20
46.75431345646939
 30
0.0
 40
2.5
 41
18.9872127560302
 46
0.0
 71
     2
 72
     5
  1
Slot 2
 73
     1
 44
1.0
1001
AcadAnnotative
1000
AnnotativeData
1002
{
1070
     1
1070
     0
1002
}
  0
MTEXT
  5
19C
330
21
100
AcDbEntity
  8
0
 62
     7
370
    -3
100
AcDbMText
 10
51.77634201329329
 20
46.75431345646939
 30
0.0
 40
2.5
 41
18.9872127560302
 46
0.0
 71
     2
 72
     5
  1
Slot 3
 73
     1
 44
1.0
1001
AcadAnnotative
1000
AnnotativeData
1002
{
1070
     1
1070
     0
1002
}
  0
MTEXT
  5
19D
330
21
100
AcDbEntity
  8
0
 62
     7
370
    -3
100
AcDbMText
 10
71.67300867995982
 20
46.75431345646894
 30
0.0
 40
2.5
 41
18.9872127560302
 46
0.0
 71
     2
 72
     5
  1
Slot 4
 73
     1
 44
1.0
1001
AcadAnnotative
1000
AnnotativeData
1002
{
1070
     1
1070
     0
1002
}
  0
ENDSEC
  0
SECTION
  2
OBJECTS
  0
DICTIONARY
  5
A
330
0
100
AcDbDictionary
281
     1
  3
ACAD_COLOR
350
35
  3
ACAD_DETAILVIEWSTYLE
350
1A2
  3
ACAD_GROUP
350
33
  3
ACAD_LAYOUT
350
26
  3
ACAD_MATERIAL
350
D
  3
ACAD_MLEADERSTYLE
350
1A1
  3
ACAD_MLINESTYLE
350
1E
  3
ACAD_PLOTSETTINGS
350
34
  3
ACAD_PLOTSTYLENAME
350
B
  3
ACAD_SCALELIST
350
3D
  3
ACAD_SECTIONVIEWSTYLE
350
1A3
  3
ACAD_TABLESTYLE
350
1A0
  3
ACAD_VISUALSTYLE
350
36
  3
AcDbVariableDictionary
350
19E
  0
DICTIONARY
  5
2
330
1
100
AcDbDictionary
280
     1
281
     1
  3
ACAD_LAYERSTATES
360
3
  3
ACLYDICTIONARY
360
4
  0
DICTIONARY
  5
8
330
7
100
AcDbDictionary
280
     1
281
     1
  3
ADSK_XREC_LAYER_RECONCILED
360
9
  0
DICTIONARY
  5
22
330
21
100
AcDbDictionary
280
     1
281
     1
  3
ACAD_SORTENTS
360
23
  0
DICTIONARY
  5
35
102
{ACAD_REACTORS
330
A
102
}
330
A
100
AcDbDictionary
281
     1
  0
DICTIONARY
  5
1A2
102
{ACAD_REACTORS
330
A
102
}
330
A
100
AcDbDictionary
281
     1
  0
DICTIONARY
  5
33
102
{ACAD_REACTORS
330
A
102
}
330
A
100
AcDbDictionary
281
     1
  0
DICTIONARY
  5
26
102
{ACAD_REACTORS
330
A
102
}
330
A
100
AcDbDictionary
281
     1
  3
Layout2
350
2F
  3
Model
350
27
  0
DICTIONARY
  5
D
102
{ACAD_REACTORS
330
A
102
}
330
A
100
AcDbDictionary
281
     1
  3
ByBlock
350
60
  3
ByLayer
350
19
  3
Global
350
E
  0
DICTIONARY
  5
1A1
102
{ACAD_REACTORS
330
A
102
}
330
A
100
AcDbDictionary
281
     1
  0
DICTIONARY
  5
1E
102
{ACAD_REACTORS
330
A
102
}
330
A
100
AcDbDictionary
281
     1
  3
Standard
350
1F
  0
DICTIONARY
  5
34
102
{ACAD_REACTORS
330
A
102
}
330
A
100
AcDbDictionary
281
     1
  0
ACDBDICTIONARYWDFLT
  5
B
102
{ACAD_REACTORS
330
A
102
}
330
A
100
AcDbDictionary
281
     1
  3
Normal
350
C
100
AcDbDictionaryWithDefault
340
C
  0
DICTIONARY
  5
3D
102
{ACAD_REACTORS
330
A
102
}
330
A
100
AcDbDictionary
281
     1
  3
*A1
350
4F
  3
*A10
350
58
  3
*A11
350
59
  3
*A12
350
5A
  3
*A13
350
5B
  3
*A14
350
5C
  3
*A15
350
5D
  3
*A16
350
5E
  3
*A17
350
5F
  3
*A2
350
50
  3
*A3
350
51
  3
*A4
350
52
  3
*A5
350
53
  3
*A6
350
54
  3
*A7
350
55
  3
*A8
350
56
  3
*A9
350
57
  0
DICTIONARY
  5
1A3
102
{ACAD_REACTORS
330
A
102
}
330
A
100
AcDbDictionary
281
     1
  0
DICTIONARY
  5
1A0
102
{ACAD_REACTORS
330
A
102
}
330
A
100
AcDbDictionary
281
     1
  0
DICTIONARY
  5
36
102
{ACAD_REACTORS
330
A
102
}
330
A
100
AcDbDictionary
281
     1
  3
2dWireframe
350
3A
  3
Realistic
350
37
  3
Wireframe
350
38
  0
DICTIONARY
  5
19E
102
{ACAD_REACTORS
330
A
102
}
330
A
100
AcDbDictionary
281
     1
  3
CANNOSCALE
350
19F
  0
DICTIONARY
  5
3
102
{ACAD_REACTORS
330
2
102
}
330
2
100
AcDbDictionary
281
     1
  0
DICTIONARY
  5
4
102
{ACAD_REACTORS
330
2
102
}
330
2
100
AcDbDictionary
281
     1
1001
ACAD
1000
All
  0
XRECORD
  5
9
102
{ACAD_REACTORS
330
8
102
}
330
8
100
AcDbXrecord
280
     1
290
     0
  0
SORTENTSTABLE
  5
23
102
{ACAD_REACTORS
330
22
102
}
330
22
100
AcDbSortentsTable
330
21
  0
LAYOUT
  5
2F
102
{ACAD_REACTORS
330
26
102
}
330
26
100
AcDbPlotSettings
  1

  2
none_device
  4
ISO_A4_(210.00_x_297.00_MM)
  6

 40
7.5
 41
20.0
 42
7.5
 43
20.0
 44
210.0
 45
297.0
 46
0.0
 47
0.0
 48
0.0
 49
0.0
140
0.0
141
0.0
142
1.0
143
1.0
 70
   688
 72
     1
 73
     1
 74
     5
  7

 75
    16
 76
     0
 77
     2
 78
   300
147
1.0
148
0.0
149
0.0
100
AcDbLayout
  1
Layout2
 70
     1
 71
     1
 10
-20.0
 20
-7.5
 11
277.0
 21
202.5
 12
0.0
 22
0.0
 32
0.0
 14
15.0979381443299
 24
17.31672394043528
 34
0.0
 15
241.9020618556701
 25
177.6832760595647
 35
0.0
146
0.0
 13
0.0
 23
0.0
 33
0.0
 16
1.0
 26
0.0
 36
0.0
 17
0.0
 27
1.0
 37
0.0
 76
     0
330
2C
  0
LAYOUT
  5
27
102
{ACAD_REACTORS
330
26
102
}
102
{ACAD_XDICTIONARY
360
28
102
}
330
26
100
AcDbPlotSettings
  1

  2
none_device
  4
ISO_A4_(210.00_x_297.00_MM)
  6

 40
7.5
 41
20.0
 42
7.5
 43
20.0
 44
210.0
 45
297.0
 46
11.54999923706055
 47
-13.65000009536743
 48
0.0
 49
0.0
140
0.0
141
0.0
142
1.0
143
8.704084754739808
 70
 11952
 72
     1
 73
     0
 74
     0
  7

 75
     0
 76
     0
 77
     2
 78
   300
147
0.1148885871608098
148
0.0
149
0.0
100
AcDbLayout
  1
Model
 70
     1
 71
     0
 10
0.0
 20
0.0
 11
12.0
 21
9.0
 12
0.0
 22
0.0
 32
0.0
 14
1813.168022314897
 24
527.115773456012
 34
-76.97363477640508
 15
10381.3994357504
 25
5070.926163757304
 35
42.0000000000003
146
0.0
 13
0.0
 23
0.0
 33
0.0
 16
1.0
 26
0.0
 36
0.0
 17
0.0
 27
1.0
 37
0.0
 76
     0
330
21
331
39
1001
ACAD_PSEXT
1000
None
1000
None
1000
Not applicable
1000
The layout will not be plotted unless a new plotter configuration name is selected.
1070
     0
  0
MATERIAL
  5
60
102
{ACAD_REACTORS
330
D
102
}
102
{ACAD_XDICTIONARY
360
61
102
}
330
D
100
AcDbMaterial
  1
ByBlock
 72
     1
 73
     2
 78
     2
172
     2
176
     2
270
     2
274
     2
 94
       63
  0
MATERIAL
  5
19
102
{ACAD_REACTORS
330
D
102
}
102
{ACAD_XDICTIONARY
360
1A
102
}
330
D
100
AcDbMaterial
  1
ByLayer
 72
     1
 73
     2
 78
     2
172
     2
176
     2
270
     2
274
     2
 94
       63
  0
MATERIAL
  5
E
102
{ACAD_REACTORS
330
D
102
}
102
{ACAD_XDICTIONARY
360
F
102
}
330
D
100
AcDbMaterial
  1
Global
 72
     1
 73
     2
 43
0.0007999999797903
 43
0.0
 43
0.0
 43
0.0
 43
0.0
 43
0.0007999999797903
 43
0.0
 43
0.0
 43
0.0
 43
0.0
 43
1.0
 43
0.0
 43
0.0
 43
0.0
 43
0.0
 43
1.0
 78
     2
172
     2
 49
0.0007999999797903
 49
0.0
 49
0.0
 49
0.0
 49
0.0
 49
0.0007999999797903
 49
0.0
 49
0.0
 49
0.0
 49
0.0
 49
1.0
 49
0.0
 49
0.0
 49
0.0
 49
0.0
 49
1.0
176
     2
142
0.0007999999797903
142
0.0
142
0.0
142
0.0
142
0.0
142
0.0007999999797903
142
0.0
142
0.0
142
0.0
142
0.0
142
1.0
142
0.0
142
0.0
142
0.0
142
0.0
142
1.0
270
     2
144
0.0007999999797903
144
0.0
144
0.0
144
0.0
144
0.0
144
0.0007999999797903
144
0.0
144
0.0
144
0.0
144
0.0
144
1.0
144
0.0
144
0.0
144
0.0
144
0.0
144
1.0
274
     2
 94
       63
1001
ACAD
1070
    -1
1070
     3
1070
     0
1000

1071
        0
1070
     0
  0
MLINESTYLE
  5
1F
102
{ACAD_REACTORS
330
1E
102
}
330
1E
100
AcDbMlineStyle
  2
STANDARD
 70
     0
  3

 62
   256
 51
90.0
 52
90.0
 71
     2
 49
0.5
 62
   256
  6
BYLAYER
 49
-0.5
 62
   256
  6
BYLAYER
  0
ACDBPLACEHOLDER
  5
C
102
{ACAD_REACTORS
330
B
102
}
330
B
  0
SCALE
  5
4F
102
{ACAD_REACTORS
330
3D
102
}
330
3D
100
AcDbScale
 70
     0
300
1:1
140
1.0
141
1.0
290
     1
  0
SCALE
  5
58
102
{ACAD_REACTORS
330
3D
102
}
330
3D
100
AcDbScale
 70
     0
300
1:40
140
1.0
141
40.0
290
     0
  0
SCALE
  5
59
102
{ACAD_REACTORS
330
3D
102
}
330
3D
100
AcDbScale
 70
     0
300
1:50
140
1.0
141
50.0
290
     0
  0
SCALE
  5
5A
102
{ACAD_REACTORS
330
3D
102
}
330
3D
100
AcDbScale
 70
     0
300
1:100
140
1.0
141
100.0
290
     0
  0
SCALE
  5
5B
102
{ACAD_REACTORS
330
3D
102
}
330
3D
100
AcDbScale
 70
     0
300
2:1
140
2.0
141
1.0
290
     0
  0
SCALE
  5
5C
102
{ACAD_REACTORS
330
3D
102
}
330
3D
100
AcDbScale
 70
     0
300
4:1
140
4.0
141
1.0
290
     0
  0
SCALE
  5
5D
102
{ACAD_REACTORS
330
3D
102
}
330
3D
100
AcDbScale
 70
     0
300
8:1
140
8.0
141
1.0
290
     0
  0
SCALE
  5
5E
102
{ACAD_REACTORS
330
3D
102
}
330
3D
100
AcDbScale
 70
     0
300
10:1
140
10.0
141
1.0
290
     0
  0
SCALE
  5
5F
102
{ACAD_REACTORS
330
3D
102
}
330
3D
100
AcDbScale
 70
     0
300
100:1
140
100.0
141
1.0
290
     0
  0
SCALE
  5
50
102
{ACAD_REACTORS
330
3D
102
}
330
3D
100
AcDbScale
 70
     0
300
1:2
140
1.0
141
2.0
290
     0
  0
SCALE
  5
51
102
{ACAD_REACTORS
330
3D
102
}
330
3D
100
AcDbScale
 70
     0
300
1:4
140
1.0
141
4.0
290
     0
  0
SCALE
  5
52
102
{ACAD_REACTORS
330
3D
102
}
330
3D
100
AcDbScale
 70
     0
300
1:5
140
1.0
141
5.0
290
     0
  0
SCALE
  5
53
102
{ACAD_REACTORS
330
3D
102
}
330
3D
100
AcDbScale
 70
     0
300
1:8
140
1.0
141
8.0
290
     0
  0
SCALE
  5
54
102
{ACAD_REACTORS
330
3D
102
}
330
3D
100
AcDbScale
 70
     0
300
1:10
140
1.0
141
10.0
290
     0
  0
SCALE
  5
55
102
{ACAD_REACTORS
330
3D
102
}
330
3D
100
AcDbScale
 70
     0
300
1:16
140
1.0
141
16.0
290
     0
  0
SCALE
  5
56
102
{ACAD_REACTORS
330
3D
102
}
330
3D
100
AcDbScale
 70
     0
300
1:20
140
1.0
141
20.0
290
     0
  0
SCALE
  5
57
102
{ACAD_REACTORS
330
3D
102
}
330
3D
100
AcDbScale
 70
     0
300
1:30
140
1.0
141
30.0
290
     0
  0
VISUALSTYLE
  5
3A
102
{ACAD_REACTORS
330
36
102
}
330
36
100
AcDbVisualStyle
  2
2dWireframe
 70
     4
177
     3
291
     0
 70
    58
 90
        0
176
     1
 90
        2
176
     1
 90
        1
176
     1
 90
        0
176
     1
 40
0.6
176
     1
 40
30.0
176
     1
 62
     7
420
 16777215
176
     1
 90
        1
176
     1
 90
        4
176
     1
 62
     7
176
     1
 62
   257
176
     1
 90
        1
176
     1
 90
        1
176
     1
 40
1.0
176
     1
 90
        0
176
     1
 62
   257
176
     1
 40
1.0
176
     1
 90
        1
176
     1
 90
        6
176
     1
 90
        2
176
     1
 62
     7
176
     1
 90
        5
176
     1
 90
        0
176
     1
 90
        0
176
     1
290
     0
176
     1
 90
        1
176
     1
 40
0.0
176
     1
 90
        0
176
     1
290
     1
176
     1
290
     1
176
     1
290
     0
176
     1
290
     0
176
     1
290
     0
176
     1
290
     0
176
     1
290
     0
176
     1
290
     0
176
     1
290
     0
176
     1
 90
       50
176
     1
 40
0.0
176
     1
 40
1.0
176
     1
 90
        0
176
     1
 62
    18
420
        0
176
     1
 90
       50
176
     1
 90
        3
176
     1
 62
     5
420
      255
176
     1
290
     0
176
     1
 90
       50
176
     1
 90
       50
176
     1
 90
       50
176
     1
290
     0
176
     1
 90
       50
176
     1
 62
   256
176
     0
 40
1.0
176
     0
 90
        2
176
     1
  1
strokes_ogs.tif
176
     1
290
     0
176
     1
 40
1.0
176
     1
 40
1.0
176
     1
  0
VISUALSTYLE
  5
37
102
{ACAD_REACTORS
330
36
102
}
330
36
100
AcDbVisualStyle
  2
Realistic
 70
     8
177
     3
291
     0
 70
    58
 90
        2
176
     1
 90
        3
176
     1
 90
        0
176
     1
 90
        2
176
     1
 40
0.6
176
     1
 40
30.0
176
     1
 62
     7
420
 16777215
176
     1
 90
        0
176
     1
 90
        0
176
     1
 62
     7
176
     1
 62
   257
176
     1
 90
        1
176
     1
 90
        1
176
     1
 40
1.0
176
     1
 90
        8
176
     1
 62
   257
176
     1
 40
1.0
176
     1
 90
        1
176
     1
 90
        6
176
     1
 90
        2
176
     1
 62
     7
176
     1
 90
        3
176
     1
 90
        0
176
     1
 90
        0
176
     1
290
     0
176
     1
 90
       13
176
     1
 40
0.0
176
     1
 90
        0
176
     1
290
     0
176
     1
290
     1
176
     1
290
     1
176
     1
290
     0
176
     1
290
     0
176
     1
290
     0
176
     1
290
     0
176
     1
290
     0
176
     1
290
     0
176
     1
 90
       50
176
     1
 40
0.0
176
     1
 40
1.0
176
     1
 90
        0
176
     1
 62
    18
420
        0
176
     1
 90
       50
176
     1
 90
        3
176
     1
 62
     5
420
      255
176
     1
290
     0
176
     1
 90
       50
176
     1
 90
       50
176
     1
 90
       50
176
     1
290
     0
176
     1
 90
       50
176
     1
 62
   256
176
     0
 40
1.0
176
     0
 90
        2
176
     1
  1
strokes_ogs.tif
176
     1
290
     0
176
     1
 40
1.0
176
     1
 40
1.0
176
     1
  0
VISUALSTYLE
  5
38
102
{ACAD_REACTORS
330
36
102
}
330
36
100
AcDbVisualStyle
  2
Wireframe
 70
     5
177
     3
291
     0
 70
    58
 90
        0
176
     1
 90
        2
176
     1
 90
        0
176
     1
 90
        0
176
     1
 40
0.6
176
     1
 40
30.0
176
     1
 62
     7
420
 16777215
176
     1
 90
        1
176
     1
 90
        4
176
     1
 62
     7
176
     1
 62
   257
176
     1
 90
        1
176
     1
 90
        1
176
     1
 40
1.0
176
     1
 90
        0
176
     1
 62
   257
176
     1
 40
1.0
176
     1
 90
        1
176
     1
 90
        6
176
     1
 90
        2
176
     1
 62
     7
176
     1
 90
        3
176
     1
 90
        0
176
     1
 90
        0
176
     1
290
     0
176
     1
 90
        1
176
     1
 40
0.0
176
     1
 90
        0
176
     1
290
     0
176
     1
290
     1
176
     1
290
     1
176
     1
290
     0
176
     1
290
     0
176
     1
290
     0
176
     1
290
     0
176
     1
290
     0
176
     1
290
     0
176
     1
 90
       50
176
     1
 40
0.0
176
     1
 40
1.0
176
     1
 90
        0
176
     1
 62
    18
420
        0
176
     1
 90
       50
176
     1
 90
        3
176
     1
 62
     5
420
      255
176
     1
290
     0
176
     1
 90
       50
176
     1
 90
       50
176
     1
 90
       50
176
     1
290
     0
176
     1
 90
       50
176
     1
 62
   256
176
     0
 40
1.0
176
     0
 90
        2
176
     1
  1
strokes_ogs.tif
176
     1
290
     0
176
     1
 40
1.0
176
     1
 40
1.0
176
     1
  0
DICTIONARYVAR
  5
19F
102
{ACAD_REACTORS
330
19E
102
}
330
19E
100
DictionaryVariables
280
     0
  1
1:1
  0
DICTIONARY
  5
28
330
27
100
AcDbDictionary
280
     1
281
     1
  3
AcPublish_PlotSettingsOverride
360
29
  0
DICTIONARY
  5
61
330
60
100
AcDbDictionary
280
     1
281
     1
  3
FBXASSET
360
62
  0
DICTIONARY
  5
1A
330
19
100
AcDbDictionary
280
     1
281
     1
  3
FBXASSET
360
1B
  0
DICTIONARY
  5
F
330
E
100
AcDbDictionary
280
     1
281
     1
  3
FBXASSET
360
10
  0
PLOTSETTINGS
  5
29
102
{ACAD_REACTORS
330
28
330
26
102
}
330
28
100
AcDbPlotSettings
  1

  2
none_device
  4
ISO_A4_(210.00_x_297.00_MM)
  6

 40
7.5
 41
20.0
 42
7.5
 43
20.0
 44
210.0
 45
297.0
 46
11.54999923706055
 47
-13.65000009536743
 48
-348.7833231427103
 49
1353.039955724496
140
142.6483611688727
141
1495.266804985138
142
1.0
143
8.704084754739808
 70
 11952
 72
     1
 73
     0
 74
     0
  7

 75
     0
 76
     0
 77
     2
 78
   300
147
0.1148885871608098
148
0.0
149
0.0
1001
ACAD_PSEXT
1000
<keine>
1000
<keine>
1000
Nicht anwendbar
1000
Das Layout wird erst geplottet, wenn ein neuer Plotter-Konfigurationsname ausgewählt wird.
1070
     0
1001
PLOTTRANSPARENCY
1071
        0
  0
XRECORD
  5
62
102
{ACAD_REACTORS
330
61
102
}
330
61
100
AcDbXrecord
280
     1
 70
     1
 90
429727718
  1
D62C5603-E3A1-4AEA-B7FB-FE5D8D0755AF
310
504B03040A0000080000CC70623B3DEE336E79000000790000001B0000006175746F6465736B2D64657369676E2D7061636B6167652E786D6C3C3F786D6C2076657273696F6E3D22312E302220656E636F64696E673D227574662D3822203F3E3C666F726D6174733E3C666F726D61743E687474703A2F2F736368656D612E
310
6175746F6465736B2E636F6D2F64657369676E2D7061636B6167652F323030393C2F666F726D61743E3C2F666F726D6174733E504B0304140006080800CC70623BD486FD9CA0000000F4000000130000005B436F6E74656E745F54797065735D2E786D6C7D8EC10E82300C865F65E91D8A1E8C310C0EEA1BF002731658846E
310
D98AC1B77784ABF1D8FE5FBFBF75BBCE937A534CCEB38643598122B6FEE978D0B0485F9C41B54DDD7D022595594E1A469170414C76A4D9A4D207E29CF43ECE46F218070CC6BECC4078ACAA135ACF422C856C0E68EA1BF5669944DDD7BCDE7B1F8E415D77AECB980613C2E4AC91FC167A2B244592486606FC29C8FD7F045B9A
310
EF7053A7E60B504B0304140006080800CC70623B853B8169EB0000007C01000008000000636F72652E786D6C8D90416EC3201045AF62CDB6C206821CC7C244919D9CA01740401C94182C03558F5F9C3852BBEB6A467FFE9B197D7EFC9E1EC5975982F5AE035262288C535E5B377690E21535501C055FBC8FBF6C503839990E
310
5619041F179FE64D52DE45E362569DD7661365082642A11EB9E920A89B99642953CC8E702F67A9EE7234257977194EC9EAE275C4EABCCF5EAD5940D4AC6F0E35A568B8F43562CD7046CD199FD07E60174276A7BE677B5EADB0E0D14EEFFB6A31321A0D82627C4084204C3F096B71DD52F6819B16635EADF63F509AF53FA164
310
5DDCD1EDDD17164090FCC8732078B56691CB33A85CD7DCC40F504B0304140006080800CC70623B55019EA25F0000007C00000007000000636E782E786D6C4DCB3B0E80201045D1AD90E915ED2CF8AC45050C11660C8261F98AB1B07AC9C97D42D718D865D3E909258CFD00CCE24AC6E326A164D74DC0B4128928FF32603847
310
2BA13128B1252AC747C6BAB984FC68F0B87FE8960A5C09FE86CFB69FBA01504B0304140006080800CC70623BDBABAAF470010000D40300000C0000006662782F636F72652E786D6CC553D16E823014FD95A6AF4B694182CC941A83FA05FB810A9511A125A5257EFE2E82712ECEB8A7F100CD39F7F69E734AF9FADC366850B6
310
AF8DCE7018308C942E4C59EB2AC3DE1D498AD15A706B8CFB56869196ADCAF00863C12B6B7C374385D14E6907A836A59A41D9F7CA615434B0C8705F7CAA5606D23BA8E84F41278B93AC54100640439DE0BDB320004D43C63716C7C399D30917DCFBBA9CD9BA8469F5B156168B24CED3F7248AC8769F27244EB73B92EED8862C
310
B7F13E0C179B3C8F979C8ECD82BBBABDAA2BAC924E9558448CBD9330242CFA08E3154B5651FCC6D215639C8EE5774DBE2B5F6CF2B5768B68963BB5F5588420E442FC700B1139D4CB01F450C1E918227C2E09DF070D8140C84E1E9AAB8F1340832A9CB13130A5F1376A908D57309505ECF2A0DF179C4E9D30F5B239B87E3823
310
7A79C6F31DE1A8A5AEC08474B03C7837EAE4938639B44E5932B833D2C6B6B279CDC613877FA26EE21F4A2A4C63EC7F29A2F301D1F9F7A0E37D145F504B0304140006080800CC70623B9C113CC27E0000009D0000000B0000006662782F636E782E786D6C4DCCDF0A83201C86E15B91DFB94BFB330DD428C8FB886521330DA7
310
6397BF1A1DECE883878F57749FCDA1B7892F1BBC047A23808C7F84D9FA55424E0BE6803A256208E9EF06C84F9B91703228B1C690F78B66B34CD9A5439DF5CF0BFBF65E35BCA1B8D6A5C6F540381E886698B5741C695F9503EBA150A2F8958E3DC3EA0B504B0304140006080800CC70623B7DF2F77C2A010000120200003100
310
00006662782F41393633353835312D344632462D344230382D423046372D3739314545314133324237412F636F72652E786D6C8D51DB8EC22014FC15C2939B0D2DB4B45643319AE817EC0F6041255A68B86CFCFC856D4D76DF7CE190393373060EDB3DC707F856CE6B6B7A480A0C81328395DA5C7B18C3057510EC3873D686
310
3F34088C18550F330C39BB3A1BA7051AAC09CA84841A2BD5020AEF55806078A44B0FFD7053A328440C89E1EFC52486BBB8AA8214A99D789CF9E05200300FC927E4FB4D5B375D43103D5527440FB843077C5AA3F5861C8F645F5787F59E95B390B318B55CE45AA638FAA2957BD7248B390B7A7CC51F9C124149C82B8C378810
310
84AB2F42B7B8DD56F413775B8C5999E9FF4471926F8AA236A1AE96B8B3CC434E5839373893369E1FAF30EA395917409EB7F26AF8801C171837A4A6AC9C89E9F9C9B1A58BA30FD6A5EF5DDDCF894B9AD9B6A59C957943A9FCAE2FD5BC4DFE03504B0304140006080800CC70623BAD7543B64E01000033030000300000006662
310
782F41393633353835312D344632462D344230382D423046372D3739314545314133324237412F636E782E786D6CD593CD6EC32010845F0571AD6CE3D48AD20813A9873E410FBD12D82434182C7EAAE6EDBB2424CD25871E7B41D6EC30B3FA84F9E67BB2E40B4234DE8DB46F1925E094D7C6ED479AD3AE5951B2113C789FEE
310
6C943839C1488B4C05DF079FE72A69D8C96C13AAD6B8631503449F83828872B949AC57D26200B826A308D316B4064D6E46FCDA41C05550DC9E483A00797BFD207EFB092A45DE9514C1BBD22178396BD39D891265658C238DEA00936C654E5E433CB65A26D9F6EDB5EBC14EBF49A45CB856E66048291F6939A9A81BB5C89177
310
38143CA680F4AA299D66A042CEB3354A2684DC9D8D178FE0D9B8B41CAAD720F880EE7EF93C0C18769E099ECC04D5A102C8049A8A05632F4DDF376CF1DE0F6BB65C2F8627B65A33C6BB62177CEBBDAD973006829F89F22E814B54F4BC2BE347F8AA8F681390B50FA73F804400B5F542E796F19FF974E7F78DB802FE05E20750
310
4B0304140006080800CC70623BE75B7789680500003C100000340000006662782F41393633353835312D344632462D344230382D423046372D3739314545314133324237412F6F626A656374732E786D6CAD575B8F9B3818FD2B887D06C22499CB8AA1CA655245D5B455A356FB305264C061D8018C6C3393D95FBFC7600890
310
A4CD5EF210B0B1BFEBF98E3F7B1FF6596ABC522E1296DF9BAE3D320D9A872C4AF2F8DE2CE5CEBA358D0FBEC719939D65A691938CDE9B6ADAF4BD98B3B2D05311DD91329583D9D5FC0F438434A7A611A644887B5384CF34233629258BA878B12322891DEFF6B66BD70BFB62634E8AE781D082709A4B588AF91C528CDA28B73F
310
1C998EEF39EABBEFA97FBD6A7C7E9553F9D3D79FE442923C3C523610337627CB87ABE99D359D4CC6D6E4FACAB5E6ABF9D2726FC6A3C5F56271377BB88362213924694B38DD99FE47C48627A1E7D49F5A8BB5E1A74C0A599ED3B0F21F1E56366B89112D681E218F0915D0D6F17AD41FBA2A369DCF6335D62ABBD39779D5DDD1
310
11D4D8DE3CBB96B2E04FB8202E41051754A1AA8E8F76B4C6DFE810B580B1547F4B84911149794252234D024EF8BBE963A95AE27B3D310A9D5C215C7960FAEE415ED75694C6AFB17BCACA5D99A60A9AA65F217B0BFC53292ACB92BF283FAD0D3621576592CB5BED907C2FA8E9DF794E35E97BEA31BED21FEB401ABB94C44839
310
DCACBF0E1C5DA8DA5B2F4DFFD32AD86F543D9E565E7056502E157C00AD2671CD534549AB752FCA9CDA00677A313F04E51B22FF19E57B300579E3C97EB29F682D92935CEC18CF901B7B54FD8C51F362B56FC72FE0B3C1EAE335EDCCBF5AEC39ADB17DC238973F804BA5E6F6BFE7AF1FB32E523BE9F3BD571418E3631DCA4D48
310
5250CF639223210A9446CA30052EDF057BD35F8329C1ECD84552BF0DC8D18BE7BCE23BFE6BD960AB4A7DE79923A103BEBD80F911CBAA2C60DB19B01CF164A5583B772EE6D3FFA56666CBCDA74DC97724A48F9A58967497E489C4D979006FD7A05E227A1EBDD0F737C623387A9C844D3709995625106D157315F8B8392CD4E0
310
A0B9A720C4BE9829CEF37EA1E13111214D53925356365ADA634861B52519DD27A00AEB808EAF0628E6F435519D446F45CF2C9CF5214F0A15B2F6D06B79DA3EE3CBF7F56780D2F4E7EF73A0F5E5B02A38D07DC852C6B7C1FBB6664213E0C39E3EBA7FF4E1AD23EA2829407C85E586727488B751B2DB9502BC7B228A3FD68B6E
310
A65A22397E690AA8D158D7E404EC8CDA235CC3B7D1898680131CEC2CDF2638C65196279577750F15884AEE19F94199155B92B13297978469D4F8D358DF0AEF7631E28DC8F0D9F437D5D39A83B2231A1D52D543813A824EF8D44BCFF2FA6A31BD1E8DAD87F1CCB526B3879935BF59CDADD5C37479BB1CDD4CA7B3556B516589
310
EF352754B706114D9C885EC9131DE6EFEB43D99AFE2391C2F958179413D7CFEF6B1B6DB1E7600F00DE6E5C67454A339A4BA2E0FBA85ED26F045D454F463DBFCE484C2F90F2E5E3666003662ED8F755951A7D1BECD5B30B550B2785C8E7320B7292A4838DDA71BBC863ED7613CAF659337A3354231D4FF4A182A54904C2898C
310
98B28C4AD0CE056CCF332A80986E571EE9DBC305BB5FEB7E509220A58D25CF042D712A806AC0AD0C657FDEF80D2D9CEAA2EE4D1C76F60BFE74219A06527D6F82DF6412526107381E55E353090704D085B52408A8913C4ED159D79BDA71BB4BC506F4831350EB6F975CD22D69BF7AC49B91A2C0A9DDA3D5CA36AD20FC478E37
310
E61844E2352865EBCB61A275A65283CAAA9DD27703B4102F5AF51EF5F573B75CBB5AD38BC845F7A49F82A0966A49C2E3EA5EA0ECD326CD965F1DB402C6FA8B51A4658C5C5E2EC9E214602E55810345408596591009A82E7E7FFACA19EEA299B14A0081A705CB3296EBC14CDF658DCD336EA6D1136881AAEB87B81AB9EE53D5
310
F5EB8BC8362082DA24122F98680A4E7930C01A0079749CEA14382A0783E5EBA5A10F8C098456A03D6A4AEB6BB881E2513747552A5DB22C7EDAF83BD5528081A365F7FF06504B0304140006080000CC70623B000000000000000000000000350000006662782F41393633353835312D344632462D344230382D423046372D37
310
39314545314133324237412F76657274696365732E62696E504B0304140006080800CC70623BF270F1330600000004000000360000006662782F41393633353835312D344632462D344230382D423046372D3739314545314133324237412F747269616E676C65732E62696E636660600000504B0304140006080000CC7062
310
3B000000000000000000000000370000006662782F41393633353835312D344632462D344230382D423046372D3739314545314133324237412F617474726962757465732E62696E504B0304140006080800CC70623B08DA0BD19000000041010000360000006662782F41393633353835312D344632462D344230382D4230
310
46372D3739314545314133324237412F6469726563746F72792E786D6C858F410AC3201045AF22B36F53E9A60B35CBEEBAE80D244E44489C6234F4F835464A48035D0DF398FF9F8AF63D0E6CC63039F212F8F9020C7D47C6792B21C5FE7403D62A1188E2E60C98D7234A5830286103A55745067B9D86B8A3CF9C7F90C11DE6
310
07FB144396D7B6A82D282E9A152AD114D5EF2CB866EEE831B8EEA07A7BB5A8D7D61A2BAAEB7FD5F70921FF497D00504B0304140006080800CC70623BEDD1DC58FD000000A00100003B0000006662782F41393633353835312D344632462D344230382D423046372D3739314545314133324237412F7265736F75726365732F
310
636F72652E786D6C8D504B6E833010BD0A9A6D65B00922041947112427E8052C33A156828DFCA97AFC9A40A576D7CDCCE87D344F8F9FBFE667F689CE6B6B3A6039850C8DB2A336530731DC4903D95970676DF82583CCC8193B5861107C72362E3BA4AC096842428D1D7107A5F7182053CF7474E0D507CE32973124857FE48B
310
540F3961CEF244279DE03EB81420DB9EAC1384436FA353E879B1B182C7A8C75DA3C7F453DF353A1075D537A7BA6464B8F535A99AE14A9A2BBD90E350DD183B5CFABE3AF262350B1EF4FC9351399401471025A527C218A1E53BAB5A5AB765F5469B96525EACF23FA6B88CFF34456DC2A1DCE36E360F82A5202F42F062ED2BAD
310
579969AFDD8A6F504B010214000A0000080000CC70623B3DEE336E79000000790000001B00000000000000000000000000000000006175746F6465736B2D64657369676E2D7061636B6167652E786D6C504B01021400140006080800CC70623BD486FD9CA0000000F40000001300000000000000000000000000B20000005B
310
436F6E74656E745F54797065735D2E786D6C504B01021400140006080800CC70623B853B8169EB0000007C010000080000000000000000000000000083010000636F72652E786D6C504B01021400140006080800CC70623B55019EA25F0000007C000000070000000000000000000000000094020000636E782E786D6C504B
310
01021400140006080800CC70623BDBABAAF470010000D40300000C00000000000000000000000000180300006662782F636F72652E786D6C504B01021400140006080800CC70623B9C113CC27E0000009D0000000B00000000000000000000000000B20400006662782F636E782E786D6C504B01021400140006080800CC70
310
623B7DF2F77C2A010000120200003100000000000000000000000000590500006662782F41393633353835312D344632462D344230382D423046372D3739314545314133324237412F636F72652E786D6C504B01021400140006080800CC70623BAD7543B64E010000330300003000000000000000000000000000D2060000
310
6662782F41393633353835312D344632462D344230382D423046372D3739314545314133324237412F636E782E786D6C504B01021400140006080800CC70623BE75B7789680500003C10000034000000000000000000000000006E0800006662782F41393633353835312D344632462D344230382D423046372D3739314545
310
314133324237412F6F626A656374732E786D6C504B01021400140006080000CC70623B0000000000000000000000003500000000000000000000000000280E00006662782F41393633353835312D344632462D344230382D423046372D3739314545314133324237412F76657274696365732E62696E504B01021400140006
310
080800CC70623BF270F133060000000400000036000000000000000000000000007B0E00006662782F41393633353835312D344632462D344230382D423046372D3739314545314133324237412F747269616E676C65732E62696E504B01021400140006080000CC70623B0000000000000000000000003700000000000000
310
000000000000D50E00006662782F41393633353835312D344632462D344230382D423046372D3739314545314133324237412F617474726962757465732E62696E504B01021400140006080800CC70623B08DA0BD1900000004101000036000000000000000000000000002A0F00006662782F41393633353835312D344632
310
462D344230382D423046372D3739314545314133324237412F6469726563746F72792E786D6C504B01021400140006080800CC70623BEDD1DC58FD000000A00100003B000000000000000000000000000E1000006662782F41393633353835312D344632462D344230382D423046372D3739314545314133324237412F7265
310
736F75726365732F636F72652E786D6C504B0506000000000E000E0080040000641100000000
  0
XRECORD
  5
1B
102
{ACAD_REACTORS
330
1A
102
}
330
1A
100
AcDbXrecord
280
     1
 70
     1
 90
429727718
  1
30362254-06B7-45E0-A893-8CFA70E3D6BC
310
504B03040A0000080000CC70623B3DEE336E79000000790000001B0000006175746F6465736B2D64657369676E2D7061636B6167652E786D6C3C3F786D6C2076657273696F6E3D22312E302220656E636F64696E673D227574662D3822203F3E3C666F726D6174733E3C666F726D61743E687474703A2F2F736368656D612E
310
6175746F6465736B2E636F6D2F64657369676E2D7061636B6167652F323030393C2F666F726D61743E3C2F666F726D6174733E504B0304140006080800CC70623BD486FD9CA0000000F4000000130000005B436F6E74656E745F54797065735D2E786D6C7D8EC10E82300C865F65E91D8A1E8C310C0EEA1BF002731658846E
310
D98AC1B77784ABF1D8FE5FBFBF75BBCE937A534CCEB38643598122B6FEE978D0B0485F9C41B54DDD7D022595594E1A469170414C76A4D9A4D207E29CF43ECE46F218070CC6BECC4078ACAA135ACF422C856C0E68EA1BF5669944DDD7BCDE7B1F8E415D77AECB980613C2E4AC91FC167A2B244592486606FC29C8FD7F045B9A
310
EF7053A7E60B504B0304140006080800CC70623B1EC5D7A3EB0000007C01000008000000636F72652E786D6C8D90416EC3201045AF82665B6103C6756C6122AB4D4ED00B204C5C94182C03558F5F9C3852BBEB6A467FFE9B197D71FC9E6FE8CBACC17AD7032D0820E3B41FAD9B7A48F1820F808E52ACDEC75F36404ECDA687
310
4D0629A6D5A76597B477D1B89855E747B38B2A041301E95B6E7A08FAD3CCAA50296647B8168BD2573599823EBB0CA76447F43862C7BCCF5EAC59410E4DDD9C7973C2755553CCCFA4C603E3040F1565ED3B1FDE4E432BCA0D9622DAF9795FAF464533826484B498524CD807E51D79ED187F21878E10516EF63F505AC67F42C9
310
BA58B1FDDD071640D2FCC87D2045B96591CB3DA85CB7DCE40F504B0304140006080800CC70623B55019EA25F0000007C00000007000000636E782E786D6C4DCB3B0E80201045D1AD90E915ED2CF8AC45050C11660C8261F98AB1B07AC9C97D42D718D865D3E909258CFD00CCE24AC6E326A164D74DC0B4128928FF32603847
310
2BA13128B1252AC747C6BAB984FC68F0B87FE8960A5C09FE86CFB69FBA01504B0304140006080800CC70623B8C9102E971010000D40300000C0000006662782F636F72652E786D6CC5535B6E833010BC8AE5DF0A6C08340F1947A84D4ED00B38C6A128602363A31CBFCB234A53A551FA553EC09AD9F5CE8C31DB9E9B1AF5CA
310
7695D1198E428A91D2D214952E33ECDD315861B4E5CC1AE3BE9561A445A3323CC098B3D21ADFCE9034DA29ED00D5A6503328BA4E398C640D8B0C77F253352214DE4145770A5B214FA2546114020D759C75CE8200340D19DE981F0F6746269C33EFAB6266AB02A655C74A59CCF365BADC27CB5D902ED22848F6340DF238A141
310
BE88E2F57B92BFEDF23523433367AE6A2EEAA455C2A902F398D2751045018D3FA264435F3771F242571B4A1919CA6F9A7C5B3CD9E42BED16F12C776AEB308F40C848FC700B1139D4891EF410CEC810227CC6846F8386402064270EF5C5C709A05E49676C024C61FC95EA45ED154CA5211D1FF4FB8291A913A68E9B83EBBB33
310
E2A7673CDE118E5AE8124C0807CB8377834E366998436B950D7A7746DAD846D4CFD978E0F04FD455FC5D49D2D4C6FE9722321F10997F0F32DC47FE05504B0304140006080800CC70623BFFEA85907E0000009D0000000B0000006662782F636E782E786D6C4DCCD10A83201886E15B91FFDC95D95A811AB6F23E625948A6C3
310
E9D8E5AF46073BFAE0E1E365ED67B3E8ADC3CB78C7815C7240DA3DFC64DCC221C519D7805AC182F7F1EF06C88D9BE6703008B6049F9E274D7A1E938DBB5AE3D6131B2589BA0D3D965551E0B2EA732C9B9A624AAEB41E3A557677029960D9AFB4EF11165F504B0304140006080800CC70623B4FEEA4082C0100001202000031
310
0000006662782F39464131463745442D413632322D343644302D413938332D3331353338454246344243312F636F72652E786D6C8D515B6EC32010BC0AE2AB55850DD871ED0813254D72825EC00192A2C460F1A872FC42ED48ED5F7E00CDCECCCEB26C731F6FE05B39AFADE921293004CA082BB5B9F43086336A21D870E6AC
310
0D7F68109861543DCC30E4ECE26C9C164858139409093556AA051CBC570102714B8F1E7AF1A5C6A11862480C7F2DA6415C878B2A4891CA89C7990F2E050073937C42DE1DB7E4F87ED8A36D4329AA9B3D46DBAEAD504556557BD81DEBDD0761E52CE42C462D17B996298E3E6BE59E35C962CE821E1FF18553435012728A7187
310
0841987E927A8D9B35ADDF70BBC6989599FE4F1427F9A4286A132ABAC49D651EF234CD5CE04CDA78BA3DC2A8FB645D00B9DF8B57E215725C60BCA2A463E54C4CE327C7A65E1C7DB02E7DEFCBF594B864C5CA6CDBD49C957943E9FA5D5FBAF336F90F504B0304140006080800CC70623BAD7543B64E01000033030000300000
310
006662782F39464131463745442D413632322D343644302D413938332D3331353338454246344243312F636E782E786D6CD593CD6EC32010845F0571AD6CE3D48AD20813A9873E410FBD12D82434182C7EAAE6EDBB2424CD25871E7B41D6EC30B3FA84F9E67BB2E40B4234DE8DB46F1925E094D7C6ED479AD3AE5951B2113C
310
789FEE6C943839C1488B4C05DF079FE72A69D8C96C13AAD6B8631503449F83828872B949AC57D26200B826A308D316B4064D6E46FCDA41C05550DC9E483A00797BFD207EFB092A45DE9514C1BBD22178396BD39D891265658C238DEA00936C654E5E433CB65A26D9F6EDB5EBC14EBF49A45CB856E66048291F6939A9A81BB5
310
C8917738143CA680F4AA299D66A042CEB3354A2684DC9D8D178FE0D9B8B41CAAD720F880EE7EF93C0C18769E099ECC04D5A102C8049A8A05632F4DDF376CF1DE0F6BB65C2F8627B65A33C6BB62177CEBBDAD973006829F89F22E814B54F4BC2BE347F8AA8F681390B50FA73F804400B5F542E796F19FF974E7F78DB802FE05
310
E207504B0304140006080800CC70623B16AB87BA640500003C100000340000006662782F39464131463745442D413632322D343644302D413938332D3331353338454246344243312F6F626A656374732E786D6CAD575B6FA33818FD2B887DE6924B3BED8A326A92B68A663B534DD4D13E548A0C38942D60649B369D5FBFC7
310
600890A493BDE42160637FD7F31D7FF63E6FB3D478A55C242CBF3247B66B1A340F5994E4F19559CA8D75611A9F7D8F33263BCB4C232719BD32D5B4E97B316765A1A722BA21652A07B3B7B33F0D11D29C9A46981221AE4C113ED38CD8A4942CA2E2C58E882476BCD9DA23BB5ED8171B73523C0F841684D35CC252CCE79062D4
310
468DFA43D7747CCF51DF7D4FFDEB5593E3AB9CCA9FBEFE241792E4E19EB28198C968BAB8199F5D5A67D3E9C49A9E8F47D6EC76B6B0469F26EEFC7C3EBFBCBEB98462213924694B38DD98FE1D62C393D073EA4FADC5DAF04326852CCF6958F90F0F2B9BB5C48816348F90C7840A68EB78EDF68723159BCEE7891A6B95DDE9D3
310
BCEAEEE8086A6C6F9E5D4B59F0175C10A7A0820BAA5055C7473B5AE3CFDD452D602CD5DF12616444529E90D448938013FE6EFA58AA96F85E4F8C42275708571E98FE6827AF6B2B4AE3D7D83D64E5A64C53054DD3AF90BD06FEA9149565C94FCA0F6B834DC85599E4F2423B24DF0B6AFA979E534DFA9E7A4CC6FA631D486393
310
921829879BF5D781A373557BCB85E97FB90DB62B558F8795179C15944B051F40AB495CF35451D26A4727654E6D8033BD98EF82F21D91FF8AF2DD9982BCF1643BDD4EB516C9492E368C67C88DED563FC36D5EACF66DFF057C3658BDBFA69DF9578B3DA735B64F18C7F20770A9D45CFCF7FCF563D6456A277DBEF78A02637CA2
310
43B90A490AEAB94F72244481D24819A6C0E59B606BFA4B3025981DBB48EAB701D97BF19C577CC77F2D1B6C55A9EF3C732474C0B727303F625995056C3B02963D9EAC146BE78EC5FCEC7FA999EBC5EACBAAE41B12D27B4D2C0BBA49F244E2ECDC81B76B502F113D8F5EE8FB1BE3111CDD4FC2AA9B844CAB1288B68AB90A7CDC
310
1C166AB0D3DC5310625FCC14E779BFD0709F8890A629C9292B1B2DED31A4B0DA928CEE135085754027E3018A397D4D5427D15BD1330B677DC8934285AC3DF45A9EB68FF8F2B8FC0A509AFEECFD0FF2DE25CC6047F7214B195F07EFEB9A094D800F7BFAE8FED187B78EA8A3A400F115961BCAD1215E47C966530AF0EE8128FE
310
58CEBB996A8964FFA529A046635D9353B0336A8F700DDF46271A024E70B0B37C9DE01847591E54DED53D54202AB947E4076556AC49C6CA5C9E1226B7F1A7B1BE15DEED62C41B91E1B3E9AFAAA735036547343A925075041DF0A9979E893B391F8FCFA6967B3EFB644DCF6E5CEBFAE272625DCC6FAF3FB93793C5F90CE1EF57
310
407342756B10D1C489E8953CD1617E5CEECAD6F4EF8914CE5D5D504E5C3F1F9736DA62CFC11E00BCDDB8CC8A9466349744C1F75EBDA4DF09BA8A9E8C7A7E9991989E20E5DBDD6A6003664ED8F7A04A8DBE0DF6EAD9B9AA858342E47399053949D2C146EDB85DE4B176BB0965FBAC19BD19AA918E27FA50C1D22402E144464C
310
59462568E704B6E71915404CB72B8FF4EDE184DDAF753F284990D2C6926782963815403548A70C657FDEF80D2D9CEAA2AE4C1C76F60BFE74219A06527D6582DF6412526107381E55E353090704D085B52408D0933C4ED159D79BDA71BB4BC506F4831350EB6F979CD22D69BF7AC49B91A2C0A9DDA3D5CA36AD20FC478E37E6
310
1844E2352865EBCB6EA275A652E3836BE04EFB400BF1A2556F515F1FBB35B2AB35BD889C744FFA1004B5544B121E57F70215746DD2F5E2C1412B602CBF19455AC6C8E5E9922C4E01E65215385004546899059180EAFCF7A707CE7017CD8CDB0410789AB32C63B91E5CEBBBACB17AC6CD347A022D5075FD106377347AAABA7E
310
7D11590744509B44E205134DC1290F06580320F78E537D3D73540E06CB970B431F185308AD40BBD794D6D77003C5A36E8EAA54BA64597CD8F83BD552A080A365F7FF06504B0304140006080000CC70623B000000000000000000000000350000006662782F39464131463745442D413632322D343644302D413938332D3331
310
353338454246344243312F76657274696365732E62696E504B0304140006080800CC70623BF270F1330600000004000000360000006662782F39464131463745442D413632322D343644302D413938332D3331353338454246344243312F747269616E676C65732E62696E636660600000504B0304140006080000CC70623B
310
000000000000000000000000370000006662782F39464131463745442D413632322D343644302D413938332D3331353338454246344243312F617474726962757465732E62696E504B0304140006080800CC70623B08DA0BD19000000041010000360000006662782F39464131463745442D413632322D343644302D413938
310
332D3331353338454246344243312F6469726563746F72792E786D6C858F410AC3201045AF22B36F53E9A60B35CBEEBAE80D244E44489C6234F4F835464A48035D0DF398FF9F8AF63D0E6CC63039F212F8F9020C7D47C6792B21C5FE7403D62A1188E2E60C98D7234A5830286103A55745067B9D86B8A3CF9C7F90C11DE607
310
FB144396D7B6A82D282E9A152AD114D5EF2CB866EEE831B8EEA07A7BB5A8D7D61A2BAAEB7FD5F70921FF497D00504B0304140006080800CC70623B0D6EF93BFE000000A00100003B0000006662782F39464131463745442D413632322D343644302D413938332D3331353338454246344243312F7265736F75726365732F63
310
6F72652E786D6C8D50596E833010BD0A9ADFCA60B334011947A8694ED00B586642AC041B79A97AFC9A40A5F6AF3F33A3B7689E1E3F7DCD8FEC139DD7D6F4C0720A191A65476DA61E62B892236427C19DB5E1970C322367EC618541F0C9D9B8EC90B226A009093576C41D94DE63804C3DD2D18357379C652E63480A7FCF17A9
310
EE72C29CE5894E3AC17D702940B63D59270887DE46A7D0F36263058F518FBB468FE9A7BE6A7420864373B8D4873369AA8691FA421B3294352543C5CAF65C0F6FEF43CB8BD52C78D0F34F46E550061C419494B6843142CB0F5677F4B52BEB177AEC28E5C52AFF638ACBF84F53D42654E51E77B379102C05791282176B5F693D
310
CB4C7BED567C03504B010214000A0000080000CC70623B3DEE336E79000000790000001B00000000000000000000000000000000006175746F6465736B2D64657369676E2D7061636B6167652E786D6C504B01021400140006080800CC70623BD486FD9CA0000000F40000001300000000000000000000000000B20000005B
310
436F6E74656E745F54797065735D2E786D6C504B01021400140006080800CC70623B1EC5D7A3EB0000007C010000080000000000000000000000000083010000636F72652E786D6C504B01021400140006080800CC70623B55019EA25F0000007C000000070000000000000000000000000094020000636E782E786D6C504B
310
01021400140006080800CC70623B8C9102E971010000D40300000C00000000000000000000000000180300006662782F636F72652E786D6C504B01021400140006080800CC70623BFFEA85907E0000009D0000000B00000000000000000000000000B30400006662782F636E782E786D6C504B01021400140006080800CC70
310
623B4FEEA4082C0100001202000031000000000000000000000000005A0500006662782F39464131463745442D413632322D343644302D413938332D3331353338454246344243312F636F72652E786D6C504B01021400140006080800CC70623BAD7543B64E010000330300003000000000000000000000000000D5060000
310
6662782F39464131463745442D413632322D343644302D413938332D3331353338454246344243312F636E782E786D6C504B01021400140006080800CC70623B16AB87BA640500003C1000003400000000000000000000000000710800006662782F39464131463745442D413632322D343644302D413938332D3331353338
310
454246344243312F6F626A656374732E786D6C504B01021400140006080000CC70623B0000000000000000000000003500000000000000000000000000270E00006662782F39464131463745442D413632322D343644302D413938332D3331353338454246344243312F76657274696365732E62696E504B01021400140006
310
080800CC70623BF270F133060000000400000036000000000000000000000000007A0E00006662782F39464131463745442D413632322D343644302D413938332D3331353338454246344243312F747269616E676C65732E62696E504B01021400140006080000CC70623B0000000000000000000000003700000000000000
310
000000000000D40E00006662782F39464131463745442D413632322D343644302D413938332D3331353338454246344243312F617474726962757465732E62696E504B01021400140006080800CC70623B08DA0BD190000000410100003600000000000000000000000000290F00006662782F39464131463745442D413632
310
322D343644302D413938332D3331353338454246344243312F6469726563746F72792E786D6C504B01021400140006080800CC70623B0D6EF93BFE000000A00100003B000000000000000000000000000D1000006662782F39464131463745442D413632322D343644302D413938332D3331353338454246344243312F7265
310
736F75726365732F636F72652E786D6C504B0506000000000E000E0080040000641100000000
  0
XRECORD
  5
10
102
{ACAD_REACTORS
330
F
102
}
330
F
100
AcDbXrecord
280
     1
 70
     0
 90
1673772943
  1
ECE7A1D2-D628-4531-984C-D00F80459256
310
504B03040A0000080000CC70623B3DEE336E79000000790000001B0000006175746F6465736B2D64657369676E2D7061636B6167652E786D6C3C3F786D6C2076657273696F6E3D22312E302220656E636F64696E673D227574662D3822203F3E3C666F726D6174733E3C666F726D61743E687474703A2F2F736368656D612E
310
6175746F6465736B2E636F6D2F64657369676E2D7061636B6167652F323030393C2F666F726D61743E3C2F666F726D6174733E504B0304140006080800CC70623BD486FD9CA0000000F4000000130000005B436F6E74656E745F54797065735D2E786D6C7D8EC10E82300C865F65E91D8A1E8C310C0EEA1BF002731658846E
310
D98AC1B77784ABF1D8FE5FBFBF75BBCE937A534CCEB38643598122B6FEE978D0B0485F9C41B54DDD7D022595594E1A469170414C76A4D9A4D207E29CF43ECE46F218070CC6BECC4078ACAA135ACF422C856C0E68EA1BF5669944DDD7BCDE7B1F8E415D77AECB980613C2E4AC91FC167A2B244592486606FC29C8FD7F045B9A
310
EF7053A7E60B504B0304140006080800CC70623BD9DDAED0EC0000007C01000008000000636F72652E786D6C8D90416EC3201045AF82665B61836D9CD8C2444DD39CA01740405C94182C03558F5F9C3852BBEB6A467FFE9B197D7EF89E6EE8CB2CC17A37002D0820E394D7D68D03A478C17B4007C117EFE32F1B20272733C0
310
2A83E0E3E2D3BC49CABB685CCCAAF3DA6CA20CC14440EA969B0182FA34932C648AD911AEC52CD5558EA6A0CF2EC329598D1E47ACCEFBECC59A050463A7EA5833865FEBDD0E37353BE3EE8DBDE3F6786A48D375FBF6CC78B9C282473B3DEFABC5C86834888A900E538A49F5419B9EB47DD5BC907D4F082F57FB1F28CDFA9F50
310
B22ED6D5F6EE030B20687EE43E10BC5CB3C8E51E54AE6B6EE207504B0304140006080800CC70623B55019EA25F0000007C00000007000000636E782E786D6C4DCB3B0E80201045D1AD90E915ED2CF8AC45050C11660C8261F98AB1B07AC9C97D42D718D865D3E909258CFD00CCE24AC6E326A164D74DC0B4128928FF326038
310
472BA13128B1252AC747C6BAB984FC68F0B87FE8960A5C09FE86CFB69FBA01504B0304140006080800CC70623BA24EB22D72010000D40300000C0000006662782F636F72652E786D6CC5535B6E833010BC8AE5DF0A6C5E49888CA3A6694ED00B38E05014B091B1518EDFE511A5A9D228FD2A1F60CDEC7A67C6986DCE4D8D7A
310
69BA4AAB0C073EC548AA5C17952A33ECECD15B61B4E1CC686DBF9561A44423333CC098B3D268D7CE50AE9595CA02AA74216750749DB418E5352C32DCE59FB211BE70162ABA93DF8AFC244AE9073ED050C759670D0840D390E18DF9F1706664C23973AE2A66B62A605A75ACA4C13C4976E1364A12EF355A2EBD384AF65EFA96
310
BC7B8BED2EA6719AAE16FB8491A199335B351775B991C2CA02F390D2D40B028F861F41BCA68B7518BFD0D59A524686F29B26D7164F36B94AD9289CE54E6D1DE6010819891F6E21228B3AD1831EC219194284CF98F06DD01008846CC5A1BEF83801D4CBDC6A1303536877A57A513B0953A94FC707FDBE6064EA84A9E3E6E0FA
310
EE8CF0E9198F7784A316AA0413C2C2F2E0ECA0934D1AE6D05A69BCDE9E91D2A611F573361E38FC1375157F5752AE6B6DFE4B11990F88CCBF0719EE23FF02504B0304140006080800CC70623B408A7D3B7C0000009D0000000B0000006662782F636E782E786D6C4DCCD10A83201886E15B91FFDC552A92A0064DBC8F581632
310
D3703A76F9ABD1C18E3E78F878E5F0D9027ABBFCF2292AE86E2D20171F69F6715550CB827B40839639A5F2770314A7CD293819B45C73AAFB45B35BA61ACAA1C1C7E7855C58C15BC331339661262CC762340413D68D77DA5B42298546CBE6573AF60CEB2F504B0304140006080800CC70623B449FB9BD290100001202000031
310
0000006662782F36394639363044362D344446342D343946362D394244322D3234314243333846323333332F636F72652E786D6C8D515B6EC32010BC0AE22B55850D98B871848994463E412FE002495162B07854397EA176A4F62F3F2C9A9D991D587EB84F37F0AD7D30CEF6905418026DA553C65E7A98E219ED203808EE9D
310
8B7F6810D871D23D2C3014FCE25D9A57483A1BB58D19B54EE9151C43D0110279CB971E06F9A5A7B11A53CC8C70ADE6515EC78BAE4895DB992778883E0700CB907242D17643D7E2538BD869608875438BBAE38922CAC8F1BDD90DB4691A5E2F42C153326A951B95E398B3D1FE599322163C9AE9115F7A3D46ADA0A018778810
310
84E907617BDCEE297BC5BB3DC6BC2EF47FA234AB2745C9D8D8D035EE220B50105E2F0DC1954B9FB747187D9F9D8FA0CCDB042D5FA0C015C65B42DF78BD10F3F3B363CB56C7109DCFDFBBB97E662ED92EB62D13BC2E1BCAE5777DB9966D8A1F504B0304140006080800CC70623BAD7543B64E01000033030000300000006662
310
782F36394639363044362D344446342D343946362D394244322D3234314243333846323333332F636E782E786D6CD593CD6EC32010845F0571AD6CE3D48AD20813A9873E410FBD12D82434182C7EAAE6EDBB2424CD25871E7B41D6EC30B3FA84F9E67BB2E40B4234DE8DB46F1925E094D7C6ED479AD3AE5951B2113C789FEE
310
6C943839C1488B4C05DF079FE72A69D8C96C13AAD6B8631503449F83828872B949AC57D26200B826A308D316B4064D6E46FCDA41C05550DC9E483A00797BFD207EFB092A45DE9514C1BBD22178396BD39D891265658C238DEA00936C654E5E433CB65A26D9F6EDB5EBC14EBF49A45CB856E66048291F6939A9A81BB5C89177
310
38143CA680F4AA299D66A042CEB3354A2684DC9D8D178FE0D9B8B41CAAD720F880EE7EF93C0C18769E099ECC04D5A102C8049A8A05632F4DDF376CF1DE0F6BB65C2F8627B65A33C6BB62177CEBBDAD973006829F89F22E814B54F4BC2BE347F8AA8F681390B50FA73F804400B5F542E796F19FF974E7F78DB802FE05E20750
310
4B0304140006080800CC70623B8D05915C650500003B100000340000006662782F36394639363044362D344446342D343946362D394244322D3234314243333846323333332F6F626A656374732E786D6CAD575B6FA33814FE2B887D06429276DA1565D4266D158D3A339A6846FB502932E050B66023DB74D2FDF5FB190C01
310
9276B2973C046C8ECFF53B17071F77456EBD502133CEAE6CDF9DD81665314F32965ED995DA3A17B6F5310C04E7AA47665B8C14F4CAD6DB7618A48257A5D94AE89654B91AEDDEDDFC61C998326A5B714EA4BCB265FC440BE2924AF184CA6737218AB8E976E7FA6E4338649B0A523E8D98964450A6A029F619B8588D52FE7039
310
B1BD30F0F4F730D0FF866AF6369557DB33949F31A9088B0F848DD8CCFCF9F2767A76E99CCDE733677E3EF59D9BBB9BA5E37F984D16E78BC5E5F5ED25044B25C0C96822E8D60EEFE11B91C581D77CEA34368A1F5329E68CD1B8B61F16D63A1B8E092D294B10C78C4A48EB593D192E7DED9BDEE7995E1B91FDEDD3ACEA9FE831
310
6A756F9F7D4D79F4274C90A7A04248AA51D5F8C718DAE06FB2F75AC4796EBE65D22A88A22223B995679120E2D50E41AA49C260C046A35368846B0BECD0DFF3EBEB8AD4F835768F69B9ADF25C43D30E6B646F807FAA64AD59F61715C7A54127C4AACA98BA3006A9D792DAE165E0D59B61A01FB3A9F9D838D2DAE62445C86166
310
F37564E842E7DE6A69879FEEA2DD5AE7E371E1A5E025154AC307D06A03D73EB5978C58FFA4C8E9033066E0F3BD53BEC1F39F91BE7B55103791EDE6BBB991A2046172CB4581D8B893FA674DDA17A77B3B7C413D1B511FD2743BFF8A38F03A658705E3ADF8015C3A3417FF3D7E439FF591DA0B5F18BC20C1B8981957AE6392A3
310
F43C640C01D1A0B4728E2DD4F26DB4B3C3152A252A3B4E913CEC1C72F012782FF88EFF8637AA552DBEF76408E8A8DE9E50F9E1CB3A2DA0DB1B6039A893B56063DC5B3E3FFB5F72E67AB9FEB4AEC496C4F4C1149625DD662C53E89D7BF0F6151A046260D1337DFDC94502430F83B0EE07A130A224BCAD7DAE1D9FB6CD422FF6
310
920702629C4BB9AE79C12F243C6432A6794E18E5552BA56B431AAB5D91317302B2B071E86C3A42B1A02F999E24061403B5D0EB639195DA655DD3EBEAB4FB862DDF579F014AD0E73C22F99E28DA57FB98E75C6CA2D74D53086D600F4786E0FE3144B771A8A7B900F03594DB8A633CBC49B2EDB69228BB479CF863B5E807AAAB
310
23872F6DFEB4129B949CA33823F58830E86D65621E10047D9DB34D862E8EAC3C2ABC2F7B2C40D67CDFE01F5545B92105AF983AC54D93D69E56FB8E797F88913F898A9FEC705D3F9D1B54EC8426FB500D40A03BD0119B06E1B95DDC7EB8F6975367793EBD70E66733DFB9BC982F9CE564727731999F5D4ECFCE3B8D6A4DC2A0
310
6D50FD148437D110834A64C6CDDF57FBACB5C307A2A477DFE4939736CFEF2B175371E0E10CF0DD1D5C15654E0BCA14D1E87DD02FF93782A162C0A3D95F1524A52770F972BF1EE9809D13CE7DD599467F8ECE9ADD85CE85A34CD45355448C64F9E8A031DC2D596ACC6E5DD93D9B82DE2EF5CAF81363A8E47996A0DE24564A79
310
4115AACE09C55E14540231FDA13C319787134EBF34E3A022514E5B4D9E0826E25C02D5805B15ABE1BEF51B26383D445DD9E875EE33FE4C22DA16427D65A3BCA92CA6D28DD01DF5DC53330704308475351050232CCD31583787BA75774AFB06E5070DD0C8EF484E19968C5D83BA5B90B244D31E54D55A372320FE4786B7EA58
310
44E135AA5467CB7EA333A61683CC6A8C3257034C10CF46F40EF9F5BE59BE5BD30C3C72D235E95D10345C1D45445A5F0BB47E46A5EBE5570F9380B5FA629579952296A773720405982B9DE04011506178964401AA8BDF1FBF0A8EAB6861DD6580C0E38217056766716DAEB2D6FA0917D3E4116581EADB879C4E7CFFB11EFACD
310
3D641311495D92C8676CB409A72D18610D803CE8A626049E8EC1887CB5B44CC39883690DDA8399B4B9855B481E7D71D4A9D22F96E5BB73BF5793020C02137BF837504B0304140006080000CC70623B000000000000000000000000350000006662782F36394639363044362D344446342D343946362D394244322D32343142
310
43333846323333332F76657274696365732E62696E504B0304140006080800CC70623BF270F1330600000004000000360000006662782F36394639363044362D344446342D343946362D394244322D3234314243333846323333332F747269616E676C65732E62696E636660600000504B0304140006080000CC70623B0000
310
00000000000000000000370000006662782F36394639363044362D344446342D343946362D394244322D3234314243333846323333332F617474726962757465732E62696E504B0304140006080800CC70623B08DA0BD19000000041010000360000006662782F36394639363044362D344446342D343946362D394244322D
310
3234314243333846323333332F6469726563746F72792E786D6C858F410AC3201045AF22B36F53E9A60B35CBEEBAE80D244E44489C6234F4F835464A48035D0DF398FF9F8AF63D0E6CC63039F212F8F9020C7D47C6792B21C5FE7403D62A1188E2E60C98D7234A5830286103A55745067B9D86B8A3CF9C7F90C11DE607FB14
310
4396D7B6A82D282E9A152AD114D5EF2CB866EEE831B8EEA07A7BB5A8D7D61A2BAAEB7FD5F70921FF497D00504B0304140006080800CC70623BCA768048FE000000A00100003B0000006662782F36394639363044362D344446342D343946362D394244322D3234314243333846323333332F7265736F75726365732F636F72
310
652E786D6C8D50596E833010BD0A9ADFCA60D600328E9AA639412F609909B1126CE4A5EAF16B0295DABFFECC8CDEA2797AECF8353F924FB44E193D409E5248504B332A3D0D10FC95B4901C39B3C6F85F3248B49871801506CE266BC2B243D2688FDA47549B11775038871E12F988C7004EDE7016A9083E2ADC3D5D84BC8B09
310
D33C8D74D471E6BC8D0192EDC93A815B742658898E651BCB59086ADC356A8C3FD555A1055ED7E7E254D615792D0F075295F585746FF53B694EE78A565DD736979A65AB9933AFE69F8CD2A2F038022F28ED489E135A7CE4554F9BBEA85E68DB53CAB255FEC71496F19FA6A0B42F8B3DEE6673C0F318E4497096AD7DC5F52C33
310
EEB55BFE0D504B010214000A0000080000CC70623B3DEE336E79000000790000001B00000000000000000000000000000000006175746F6465736B2D64657369676E2D7061636B6167652E786D6C504B01021400140006080800CC70623BD486FD9CA0000000F40000001300000000000000000000000000B20000005B436F
310
6E74656E745F54797065735D2E786D6C504B01021400140006080800CC70623BD9DDAED0EC0000007C010000080000000000000000000000000083010000636F72652E786D6C504B01021400140006080800CC70623B55019EA25F0000007C000000070000000000000000000000000095020000636E782E786D6C504B0102
310
1400140006080800CC70623BA24EB22D72010000D40300000C00000000000000000000000000190300006662782F636F72652E786D6C504B01021400140006080800CC70623B408A7D3B7C0000009D0000000B00000000000000000000000000B50400006662782F636E782E786D6C504B01021400140006080800CC70623B
310
449FB9BD290100001202000031000000000000000000000000005A0500006662782F36394639363044362D344446342D343946362D394244322D3234314243333846323333332F636F72652E786D6C504B01021400140006080800CC70623BAD7543B64E010000330300003000000000000000000000000000D20600006662
310
782F36394639363044362D344446342D343946362D394244322D3234314243333846323333332F636E782E786D6C504B01021400140006080800CC70623B8D05915C650500003B10000034000000000000000000000000006E0800006662782F36394639363044362D344446342D343946362D394244322D32343142433338
310
46323333332F6F626A656374732E786D6C504B01021400140006080000CC70623B0000000000000000000000003500000000000000000000000000250E00006662782F36394639363044362D344446342D343946362D394244322D3234314243333846323333332F76657274696365732E62696E504B010214001400060808
310
00CC70623BF270F13306000000040000003600000000000000000000000000780E00006662782F36394639363044362D344446342D343946362D394244322D3234314243333846323333332F747269616E676C65732E62696E504B01021400140006080000CC70623B00000000000000000000000037000000000000000000
310
00000000D20E00006662782F36394639363044362D344446342D343946362D394244322D3234314243333846323333332F617474726962757465732E62696E504B01021400140006080800CC70623B08DA0BD190000000410100003600000000000000000000000000270F00006662782F36394639363044362D344446342D
310
343946362D394244322D3234314243333846323333332F6469726563746F72792E786D6C504B01021400140006080800CC70623BCA768048FE000000A00100003B000000000000000000000000000B1000006662782F36394639363044362D344446342D343946362D394244322D3234314243333846323333332F7265736F
310
75726365732F636F72652E786D6C504B0506000000000E000E0080040000621100000000
  0
ENDSEC
  0
EOF
