  0
SECTION
  2
HEADER
  9
$ACADVER
  1
AC1032
  9
$ACADMAINTVER
 90
        4
  9
$DWGCODEPAGE
  3
ANSI_1252
  9
$REQUIREDVERSIONS
160
                 0
  9
$INSBASE
 10
0.0
 20
0.0
 30
0.0
  9
$EXTMIN
 10
1813.168022314897
 20
527.115773456012
 30
-76.97363477640508
  9
$EXTMAX
 10
10381.3994357504
 20
5070.926163757304
 30
42.0000000000003
  9
$LIMMIN
 10
0.0
 20
0.0
  9
$LIMMAX
 10
420.0
 20
297.0
  9
$ORTHOMODE
 70
     1
  9
$REGENMODE
 70
     1
  9
$FILLMODE
 70
     1
  9
$QTEXTMODE
 70
     0
  9
$MIRRTEXT
 70
     0
  9
$LTSCALE
 40
1.0
  9
$ATTMODE
 70
     1
  9
$TEXTSIZE
 40
2.5
  9
$TRACEWID
 40
1.0
  9
$TEXTSTYLE
  7
Standard
  9
$CLAYER
  8
0
  9
$CELTYPE
  6
ByLayer
  9
$CECOLOR
 62
     7
  9
$CELTSCALE
 40
1.0
  9
$DISPSILH
 70
     0
  9
$DIMSCALE
 40
1.0
  9
$DIMASZ
 40
2.5
  9
$DIMEXO
 40
0.625
  9
$DIMDLI
 40
3.75
  9
$DIMRND
 40
0.0
  9
$DIMDLE
 40
0.0
  9
$DIMEXE
 40
1.25
  9
$DIMTP
 40
0.0
  9
$DIMTM
 40
0.0
  9
$DIMTXT
 40
2.5
  9
$DIMCEN
 40
2.5
  9
$DIMTSZ
 40
0.0
  9
$DIMTOL
 70
     0
  9
$DIMLIM
 70
     0
  9
$DIMTIH
 70
     0
  9
$DIMTOH
 70
     0
  9
$DIMSE1
 70
     0
  9
$DIMSE2
 70
     0
  9
$DIMTAD
 70
     1
  9
$DIMZIN
 70
     8
  9
$DIMBLK
  1

  9
$DIMASO
 70
     1
  9
$DIMSHO
 70
     1
  9
$DIMPOST
  1

  9
$DIMAPOST
  1

  9
$DIMALT
 70
     0
  9
$DIMALTD
 70
     3
  9
$DIMALTF
 40
0.03937007874016
  9
$DIMLFAC
 40
1.0
  9
$DIMTOFL
 70
     1
  9
$DIMTVP
 40
0.0
  9
$DIMTIX
 70
     0
  9
$DIMSOXD
 70
     0
  9
$DIMSAH
 70
     0
  9
$DIMBLK1
  1

  9
$DIMBLK2
  1

  9
$DIMSTYLE
  2
ISO-25
  9
$DIMCLRD
 70
     0
  9
$DIMCLRE
 70
     0
  9
$DIMCLRT
 70
     0
  9
$DIMTFAC
 40
1.0
  9
$DIMGAP
 40
0.625
  9
$DIMJUST
 70
     0
  9
$DIMSD1
 70
     0
  9
$DIMSD2
 70
     0
  9
$DIMTOLJ
 70
     0
  9
$DIMTZIN
 70
     8
  9
$DIMALTZ
 70
     0
  9
$DIMALTTZ
 70
     0
  9
$DIMUPT
 70
     0
  9
$DIMDEC
 70
     2
  9
$DIMTDEC
 70
     2
  9
$DIMALTU
 70
     2
  9
$DIMALTTD
 70
     3
  9
$DIMTXSTY
  7
Standard
  9
$DIMAUNIT
 70
     0
  9
$DIMADEC
 70
     0
  9
$DIMALTRND
 40
0.0
  9
$DIMAZIN
 70
     0
  9
$DIMDSEP
 70
    44
  9
$DIMATFIT
 70
     3
  9
$DIMFRAC
 70
     0
  9
$DIMLDRBLK
  1

  9
$DIMLUNIT
 70
     2
  9
$DIMLWD
 70
    -2
  9
$DIMLWE
 70
    -2
  9
$DIMTMOVE
 70
     0
  9
$DIMFXL
 40
1.0
  9
$DIMFXLON
 70
     0
  9
$DIMJOGANG
 40
0.7853981633974483
  9
$DIMTFILL
 70
     0
  9
$DIMTFILLCLR
 70
     0
  9
$DIMARCSYM
 70
     0
  9
$DIMLTYPE
  6

  9
$DIMLTEX1
  6

  9
$DIMLTEX2
  6

  9
$DIMTXTDIRECTION
 70
     0
  9
$LUNITS
 70
     2
  9
$LUPREC
 70
     4
  9
$SKETCHINC
 40
1.0
  9
$FILLETRAD
 40
5.0
  9
$AUNITS
 70
     0
  9
$AUPREC
 70
     0
  9
$MENU
  1
.
  9
$ELEVATION
 40
0.0
  9
$PELEVATION
 40
0.0
  9
$THICKNESS
 40
0.0
  9
$LIMCHECK
 70
     0
  9
$CHAMFERA
 40
0.0
  9
$CHAMFERB
 40
0.0
  9
$CHAMFERC
 40
0.0
  9
$CHAMFERD
 40
0.0
  9
$SKPOLY
 70
     0
  9
$TDCREATE
 40
2458872.312375509
  9
$TDUCREATE
 40
2458872.270708843
  9
$TDUPDATE
 40
2460983.561883206
  9
$TDUUPDATE
 40
2460983.52021654
  9
$TDINDWG
 40
18.8605816782
  9
$TDUSRTIMER
 40
18.860560706
  9
$USRTIMER
 70
     1
  9
$ANGBASE
 50
0.0
  9
$ANGDIR
 70
     0
  9
$PDMODE
 70
     0
  9
$PDSIZE
 40
0.0
  9
$PLINEWID
 40
0.0
  9
$SPLFRAME
 70
     0
  9
$SPLINETYPE
 70
     6
  9
$SPLINESEGS
 70
     8
  9
$HANDSEED
  5
1E1
  9
$SURFTAB1
 70
     6
  9
$SURFTAB2
 70
     6
  9
$SURFTYPE
 70
     6
  9
$SURFU
 70
     6
  9
$SURFV
 70
     6
  9
$UCSBASE
  2

  9
$UCSNAME
  2

  9
$UCSORG
 10
0.0
 20
0.0
 30
0.0
  9
$UCSXDIR
 10
1.0
 20
0.0
 30
0.0
  9
$UCSYDIR
 10
0.0
 20
1.0
 30
0.0
  9
$UCSORTHOREF
  2

  9
$UCSORTHOVIEW
 70
     0
  9
$UCSORGTOP
 10
0.0
 20
0.0
 30
0.0
  9
$UCSORGBOTTOM
 10
0.0
 20
0.0
 30
0.0
  9
$UCSORGLEFT
 10
0.0
 20
0.0
 30
0.0
  9
$UCSORGRIGHT
 10
0.0
 20
0.0
 30
0.0
  9
$UCSORGFRONT
 10
0.0
 20
0.0
 30
0.0
  9
$UCSORGBACK
 10
0.0
 20
0.0
 30
0.0
  9
$PUCSBASE
  2

  9
$PUCSNAME
  2

  9
$PUCSORG
 10
0.0
 20
0.0
 30
0.0
  9
$PUCSXDIR
 10
1.0
 20
0.0
 30
0.0
  9
$PUCSYDIR
 10
0.0
 20
1.0
 30
0.0
  9
$PUCSORTHOREF
  2

  9
$PUCSORTHOVIEW
 70
     0
  9
$PUCSORGTOP
 10
0.0
 20
0.0
 30
0.0
  9
$PUCSORGBOTTOM
 10
0.0
 20
0.0
 30
0.0
  9
$PUCSORGLEFT
 10
0.0
 20
0.0
 30
0.0
  9
$PUCSORGRIGHT
 10
0.0
 20
0.0
 30
0.0
  9
$PUCSORGFRONT
 10
0.0
 20
0.0
 30
0.0
  9
$PUCSORGBACK
 10
0.0
 20
0.0
 30
0.0
  9
$USERI1
 70
     0
  9
$USERI2
 70
     0
  9
$USERI3
 70
     0
  9
$USERI4
 70
     0
  9
$USERI5
 70
     0
  9
$USERR1
 40
0.0
  9
$USERR2
 40
0.0
  9
$USERR3
 40
0.0
  9
$USERR4
 40
0.0
  9
$USERR5
 40
0.0
  9
$WORLDVIEW
 70
     1
  9
$SHADEDGE
 70
     3
  9
$SHADEDIF
 70
    70
  9
$TILEMODE
 70
     1
  9
$MAXACTVP
 70
    64
  9
$PINSBASE
 10
0.0
 20
0.0
 30
0.0
  9
$PLIMCHECK
 70
     0
  9
$PEXTMIN
 10
15.0979381443299
 20
17.31672394043528
 30
0.0
  9
$PEXTMAX
 10
241.9020618556701
 20
177.6832760595647
 30
0.0
  9
$PLIMMIN
 10
-20.0
 20
-7.5
  9
$PLIMMAX
 10
277.0
 20
202.5
  9
$UNITMODE
 70
     0
  9
$VISRETAIN
 70
     1
  9
$PLINEGEN
 70
     0
  9
$PSLTSCALE
 70
     1
  9
$TREEDEPTH
 70
  3020
  9
$CMLSTYLE
  2
Standard
  9
$CMLJUST
 70
     0
  9
$CMLSCALE
 40
20.0
  9
$PROXYGRAPHICS
 70
     1
  9
$MEASUREMENT
 70
     1
  9
$CELWEIGHT
370
    -3
  9
$ENDCAPS
280
     0
  9
$JOINSTYLE
280
     0
  9
$LWDISPLAY
290
     0
  9
$INSUNITS
 70
     4
  9
$HYPERLINKBASE
  1

  9
$STYLESHEET
  1

  9
$XEDIT
290
     1
  9
$CEPSNTYPE
380
     0
  9
$PSTYLEMODE
290
     1
  9
$FINGERPRINTGUID
  2
{904878C0-6957-4577-8612-FB6076E7829B}
  9
$VERSIONGUID
  2
{EDC5F5B8-66B0-4530-9C98-803C2708DFE7}
  9
$EXTNAMES
290
     1
  9
$PSVPSCALE
 40
0.0
  9
$OLESTARTUP
290
     0
  9
$SORTENTS
280
   127
  9
$INDEXCTL
280
     0
  9
$HIDETEXT
280
     1
  9
$XCLIPFRAME
280
     2
  9
$HALOGAP
280
     0
  9
$OBSCOLOR
 70
   257
  9
$OBSLTYPE
280
     0
  9
$INTERSECTIONDISPLAY
280
     0
  9
$INTERSECTIONCOLOR
 70
   257
  9
$DIMASSOC
280
     2
  9
$PROJECTNAME
  1

  9
$CAMERADISPLAY
290
     0
  9
$LENSLENGTH
 40
50.0
  9
$CAMERAHEIGHT
 40
0.0
  9
$STEPSPERSEC
 40
2.0
  9
$STEPSIZE
 40
6.0
  9
$3DDWFPREC
 40
2.0
  9
$PSOLWIDTH
 40
5.0
  9
$PSOLHEIGHT
 40
80.0
  9
$LOFTANG1
 40
1.570796326794897
  9
$LOFTANG2
 40
1.570796326794897
  9
$LOFTMAG1
 40
0.0
  9
$LOFTMAG2
 40
0.0
  9
$LOFTPARAM
 70
     7
  9
$LOFTNORMALS
280
     1
  9
$LATITUDE
 40
37.795
  9
$LONGITUDE
 40
-122.394
  9
$NORTHDIRECTION
 40
0.0
  9
$TIMEZONE
 70
 -8000
  9
$LIGHTGLYPHDISPLAY
280
     1
  9
$TILEMODELIGHTSYNCH
280
     1
  9
$CMATERIAL
347
19
  9
$SOLIDHIST
280
     0
  9
$SHOWHIST
280
     1
  9
$DWFFRAME
280
     2
  9
$DGNFRAME
280
     0
  9
$REALWORLDSCALE
290
     1
  9
$INTERFERECOLOR
 62
     1
  9
$INTERFEREOBJVS
345
37
  9
$INTERFEREVPVS
346
38
  9
$CSHADOW
280
     0
  9
$SHADOWPLANELOCATION
 40
0.0
  0
ENDSEC
  0
SECTION
  2
CLASSES
  0
CLASS
  1
ACDBDICTIONARYWDFLT
  2
AcDbDictionaryWithDefault
  3
ObjectDBX Classes
 90
        0
 91
        8
280
     0
281
     0
  0
CLASS
  1
MATERIAL
  2
AcDbMaterial
  3
ObjectDBX Classes
 90
     1153
 91
        8
280
     0
281
     0
  0
CLASS
  1
SORTENTSTABLE
  2
AcDbSortentsTable
  3
ObjectDBX Classes
 90
        0
 91
        7
280
     0
281
     0
  0
CLASS
  1
PLOTSETTINGS
  2
AcDbPlotSettings
  3
ObjectDBX Classes
 90
        0
 91
        5
280
     0
281
     0
  0
CLASS
  1
VISUALSTYLE
  2
AcDbVisualStyle
  3
ObjectDBX Classes
 90
     4095
 91
        8
280
     0
281
     0
  0
CLASS
  1
SCALE
  2
AcDbScale
  3
ObjectDBX Classes
 90
     1153
 91
        8
280
     0
281
     0
  0
CLASS
  1
DICTIONARYVAR
  2
AcDbDictionaryVar
  3
ObjectDBX Classes
 90
        0
 91
        8
280
     0
281
     0
  0
ENDSEC
  0
SECTION
  2
TABLES
  0
TABLE
  2
VPORT
  5
32
330
0
100
AcDbSymbolTable
 70
     1
  0
VPORT
  5
39
330
32
100
AcDbSymbolTableRecord
100
AcDbViewportTableRecord
  2
*Active
 70
     0
 10
0.0
 20
0.0
 11
1.0
 21
1.0
 12
1323.131480605816
 22
691.962000844595
 13
0.0
 23
0.0
 14
10.0
 24
10.0
 15
10.0
 25
10.0
 16
0.0
 26
0.0
 36
1.0
 17
7759.205398603561
 27
2848.63477070933
 37
0.0
 40
246.5719409278202
 41
1.94
 42
50.0
 43
0.0
 44
0.0
 50
0.0
 51
0.0
 71
     0
 72
  1000
 73
     1
 74
     3
 75
     0
 76
     0
 77
     0
 78
     0
281
     0
 65
     1
110
0.0
120
0.0
130
0.0
111
1.0
121
0.0
131
0.0
112
0.0
122
1.0
132
0.0
 79
     0
146
0.0
348
3A
 60
     3
 61
     5
292
     1
282
     1
141
0.0
142
0.0
 63
   250
421
  3355443
1001
ACAD_NAV_VCDISPLAY
1070
     3
  0
ENDTAB
  0
TABLE
  2
LTYPE
  5
11
330
0
100
AcDbSymbolTable
 70
    25
  0
LTYPE
  5
12
330
11
100
AcDbSymbolTableRecord
100
AcDbLinetypeTableRecord
  2
ByBlock
 70
     0
  3

 72
    65
 73
     0
 40
0.0
  0
LTYPE
  5
13
330
11
100
AcDbSymbolTableRecord
100
AcDbLinetypeTableRecord
  2
ByLayer
 70
     0
  3

 72
    65
 73
     0
 40
0.0
  0
LTYPE
  5
14
330
11
100
AcDbSymbolTableRecord
100
AcDbLinetypeTableRecord
  2
Continuous
 70
     0
  3
Solid line
 72
    65
 73
     0
 40
0.0
  0
ENDTAB
  0
TABLE
  2
LAYER
  5
1
102
{ACAD_XDICTIONARY
360
2
102
}
330
0
100
AcDbSymbolTable
 70
    26
  0
LAYER
  5
7
102
{ACAD_XDICTIONARY
360
8
102
}
330
1
100
AcDbSymbolTableRecord
100
AcDbLayerTableRecord
  2
0
 70
     0
 62
     7
  6
Continuous
370
    -3
390
C
347
E
348
0
1001
AcAecLayerStandard
1000

1000

1001
AcCmTransparency
1071
 33554687
  0
ENDTAB
  0
TABLE
  2
STYLE
  5
17
330
0
100
AcDbSymbolTable
 70
    14
  0
STYLE
  5
18
330
17
100
AcDbSymbolTableRecord
100
AcDbTextStyleTableRecord
  2
Standard
 70
     0
 40
0.0
 41
1.0
 50
0.0
 71
     0
 42
2.5
  3
arial.ttf
  4

1001
ACAD
1000
Arial
1071
       34
  0
ENDTAB
  0
TABLE
  2
VIEW
  5
30
330
0
100
AcDbSymbolTable
 70
     0
  0
ENDTAB
  0
TABLE
  2
UCS
  5
31
330
0
100
AcDbSymbolTable
 70
     0
  0
ENDTAB
  0
TABLE
  2
APPID
  5
5
330
0
100
AcDbSymbolTable
 70
    29
  0
APPID
  5
6
330
5
100
AcDbSymbolTableRecord
100
AcDbRegAppTableRecord
  2
ACAD
 70
     0
  0
APPID
  5
2A
330
5
100
AcDbSymbolTableRecord
100
AcDbRegAppTableRecord
  2
ACAD_PSEXT
 70
     0
  0
APPID
  5
3B
330
5
100
AcDbSymbolTableRecord
100
AcDbRegAppTableRecord
  2
ACAD_NAV_VCDISPLAY
 70
     0
  0
APPID
  5
15
330
5
100
AcDbSymbolTableRecord
100
AcDbRegAppTableRecord
  2
AcAecLayerStandard
 70
     0
  0
APPID
  5
16
330
5
100
AcDbSymbolTableRecord
100
AcDbRegAppTableRecord
  2
AcCmTransparency
 70
     0
  0
APPID
  5
2B
330
5
100
AcDbSymbolTableRecord
100
AcDbRegAppTableRecord
  2
PLOTTRANSPARENCY
 70
     0
  0
ENDTAB
  0
TABLE
  2
DIMSTYLE
  5
1C
330
0
100
AcDbSymbolTable
 70
    16
100
AcDbDimStyleTable
  0
DIMSTYLE
105
1D
102
{ACAD_REACTORS
102
}
330
1C
100
AcDbSymbolTableRecord
100
AcDbDimStyleTableRecord
  2
ISO-25
 70
     0
 41
2.5
 42
0.625
 43
3.75
 44
1.25
 73
     0
 74
     0
 77
     1
 78
     8
140
2.5
141
2.5
143
0.03937007874016
147
0.625
171
     3
172
     1
178
     0
271
     2
272
     2
274
     3
278
    44
283
     0
284
     8
340
18
  0
ENDTAB
  0
TABLE
  2
BLOCK_RECORD
  5
20
330
0
100
AcDbSymbolTable
 70
   342
  0
BLOCK_RECORD
  5
21
102
{ACAD_XDICTIONARY
360
22
102
}
330
20
100
AcDbSymbolTableRecord
100
AcDbBlockTableRecord
  2
*Model_Space
340
27
 70
     0
280
     1
281
     0
  0
BLOCK_RECORD
  5
2C
330
20
100
AcDbSymbolTableRecord
100
AcDbBlockTableRecord
  2
*Paper_Space
340
2F
 70
     0
280
     1
281
     0
  0
ENDTAB
  0
ENDSEC
  0
SECTION
  2
BLOCKS
  0
BLOCK
  5
24
330
21
100
AcDbEntity
  8
0
100
AcDbBlockBegin
  2
*Model_Space
 70
     0
 10
0.0
 20
0.0
 30
0.0
  3
*Model_Space
  1

  0
ENDBLK
  5
25
330
21
100
AcDbEntity
  8
0
100
AcDbBlockEnd
  0
BLOCK
  5
2D
330
2C
100
AcDbEntity
 67
     1
  8
0
100
AcDbBlockBegin
  2
*Paper_Space
 70
     0
 10
0.0
 20
0.0
 30
0.0
  3
*Paper_Space
  1

  0
ENDBLK
  5
2E
330
2C
100
AcDbEntity
 67
     1
  8
0
100
AcDbBlockEnd
  0
ENDSEC
  0
SECTION
  2
ENTITIES
  0
LINE
  5
63
330
21
100
AcDbEntity
  8
0
370
    -3
100
AcDbLine
 10
2.399999999997817
 20
16.45000000000073
 30
0.0
 11
2.399999999997817
 21
18.64999999999964
 31
0.0
  0
LINE
  5
64
330
21
100
AcDbEntity
  8
0
370
    -3
100
AcDbLine
 10
1.597056274846182
 20
16.45000000000073
 30
0.0
 11
2.399999999997817
 21
16.45000000000073
 31
0.0
  0
LINE
  5
65
330
21
100
AcDbEntity
  8
0
370
    -3
100
AcDbLine
 10
-0.000000000001819
 20
17.64999999999964
 30
0.0
 11
1.099999999998545
 21
17.64999999999964
 31
0.0
  0
LINE
  5
66
330
21
100
AcDbEntity
  8
0
370
    -3
100
AcDbLine
 10
0.499999999998181
 20
8.0
 30
0.0
 11
0.499999999998181
 21
9.0
 31
0.0
  0
LINE
  5
67
330
21
100
AcDbEntity
  8
0
370
    -3
100
AcDbLine
 10
1.099999999998545
 20
17.64999999999964
 30
0.0
 11
1.597056274846182
 21
16.45000000000073
 31
0.0
  0
LINE
  5
68
330
21
100
AcDbEntity
  8
0
370
    -3
100
AcDbLine
 10
0.499999999998181
 20
9.0
 30
0.0
 11
-0.000000000001819
 21
10.86602540378408
 31
0.0
  0
LINE
  5
69
330
21
100
AcDbEntity
  8
0
370
    -3
100
AcDbLine
 10
0.0
 20
8.0
 30
0.0
 11
0.499999999998181
 21
8.0
 31
0.0
  0
ARC
  5
6A
330
21
100
AcDbEntity
  8
0
370
    -3
100
AcDbCircle
 10
0.3999999999978172
 20
18.64999999999964
 30
-0.0000000000000067
 40
2.0
100
AcDbArc
 50
0.0
 51
42.45415020438993
  0
LINE
  5
6B
330
21
100
AcDbEntity
  8
0
370
    -3
100
AcDbLine
 10
0.499999999998181
 20
-8.0
 30
0.0
 11
0.0
 21
-8.0
 31
0.0
  0
LINE
  5
6C
330
21
100
AcDbEntity
  8
0
370
    -3
100
AcDbLine
 10
0.499999999998181
 20
-9.0
 30
0.0
 11
0.499999999998181
 21
-8.0
 31
0.0
  0
LINE
  5
6D
330
21
100
AcDbEntity
  8
0
370
    -3
100
AcDbLine
 10
-0.000000000001819
 20
-10.86602540378408
 30
0.0
 11
0.499999999998181
 21
-9.0
 31
0.0
  0
LINE
  5
6E
330
21
100
AcDbEntity
  8
0
370
    -3
100
AcDbLine
 10
-5.500000000003638
 20
-26.25000000000182
 30
0.0
 11
-5.500000000003638
 21
-37.49047538305058
 31
0.0
  0
LINE
  5
6F
330
21
100
AcDbEntity
  8
0
370
    -3
100
AcDbLine
 10
-5.500000000003638
 20
-11.25000000000182
 30
0.0
 11
-5.500000000003638
 21
-26.25000000000182
 31
0.0
  0
LINE
  5
70
330
21
100
AcDbEntity
  8
0
370
    -3
100
AcDbLine
 10
-5.500000000003638
 20
3.749999999998181
 30
0.0
 11
-5.500000000003638
 21
-11.25000000000182
 31
0.0
  0
LINE
  5
71
330
21
100
AcDbEntity
  8
0
370
    -3
100
AcDbLine
 10
-5.500000000003638
 20
18.74999999999818
 30
0.0
 11
-5.500000000003638
 21
3.749999999998181
 31
0.0
  0
LINE
  5
72
330
21
100
AcDbEntity
  8
0
370
    -3
100
AcDbLine
 10
-5.500000000003638
 20
33.74999999999818
 30
0.0
 11
-5.500000000003638
 21
18.74999999999818
 31
0.0
  0
LINE
  5
73
330
21
100
AcDbEntity
  8
0
370
    -3
100
AcDbLine
 10
-5.500000000003638
 20
37.49047538304876
 30
0.0
 11
-5.500000000003638
 21
33.74999999999818
 31
0.0
  0
LINE
  5
74
330
21
100
AcDbEntity
  8
0
370
    -3
100
AcDbLine
 10
3.185147925985802
 20
37.49047538304876
 30
0.0
 11
-5.500000000021828
 21
37.49047538304876
 31
0.0
  0
ARC
  5
75
330
21
100
AcDbEntity
  8
0
370
    -3
100
AcDbCircle
 10
2.293970108323265
 20
35.69999999999891
 30
0.000000000000001
 40
2.0
100
AcDbArc
 50
6.99999999997972
 51
63.53897686133612
  0
LINE
  5
76
330
21
100
AcDbEntity
  8
0
370
    -3
100
AcDbLine
 10
4.279062411605992
 20
35.9437386868085
 30
0.0
 11
5.499999999998181
 21
26.0
 31
0.0
  0
LINE
  5
77
330
21
100
AcDbEntity
  8
0
370
    -3
100
AcDbLine
 10
5.499999999998181
 20
26.0
 30
0.0
 11
5.5
 21
21.0
 31
0.0
  0
ARC
  5
78
330
21
100
AcDbEntity
  8
0
370
    -3
100
AcDbCircle
 10
4.5
 20
21.0
 30
-0.0000000000000053
 40
1.0
100
AcDbArc
 50
270.0
 51
0.0
  0
LINE
  5
79
330
21
100
AcDbEntity
  8
0
370
    -3
100
AcDbLine
 10
4.5
 20
20.0
 30
0.0
 11
0.0
 21
20.0
 31
0.0
  0
LINE
  5
7A
330
21
100
AcDbEntity
  8
0
370
    -3
100
AcDbLine
 10
0.0
 20
20.0
 30
0.0
 11
0.0
 21
-20.0
 31
0.0
  0
LINE
  5
7B
330
21
100
AcDbEntity
  8
0
370
    -3
100
AcDbLine
 10
0.0
 20
-20.0
 30
0.0
 11
4.499999999998181
 21
-20.0
 31
0.0
  0
ARC
  5
7C
330
21
100
AcDbEntity
  8
0
370
    -3
100
AcDbCircle
 10
4.499999999998181
 20
-21.0
 30
0.000000000000004
 40
1.0
100
AcDbArc
 50
0.0
 51
90.0
  0
LINE
  5
7D
330
21
100
AcDbEntity
  8
0
370
    -3
100
AcDbLine
 10
5.499999999998181
 20
-21.0
 30
0.0
 11
5.5
 21
-26.0
 31
0.0
  0
LINE
  5
7E
330
21
100
AcDbEntity
  8
0
370
    -3
100
AcDbLine
 10
5.5
 20
-26.0
 30
0.0
 11
4.279062411605992
 21
-35.94373868681032
 31
0.0
  0
ARC
  5
7F
330
21
100
AcDbEntity
  8
0
370
    -3
100
AcDbCircle
 10
2.293970108323265
 20
-35.70000000000073
 30
-0.0000000000000027
 40
2.00000000000019
100
AcDbArc
 50
296.4610231385998
 51
353.0000000000203
  0
LINE
  5
80
330
21
100
AcDbEntity
  8
0
370
    -3
100
AcDbLine
 10
-5.500000000149157
 20
-37.49047538305058
 30
0.0
 11
3.185147925983983
 21
-37.49047538305058
 31
0.0
  0
LINE
  5
81
330
21
100
AcDbEntity
  8
0
370
    -3
100
AcDbLine
 10
-20.90000000000327
 20
34.50000000000546
 30
0.0
 11
-20.90000000000327
 21
37.26977419787909
 31
0.0
  0
LINE
  5
82
330
21
100
AcDbEntity
  8
0
370
    -3
100
AcDbLine
 10
-14.90000000000691
 20
37.26977419787909
 30
0.0
 11
-14.90000000000691
 21
34.50000000000546
 31
0.0
  0
LINE
  5
83
330
21
100
AcDbEntity
  8
0
370
    -3
100
AcDbLine
 10
-11.90119209709701
 20
37.26977419787909
 30
0.0
 11
-14.90000000000691
 21
37.26977419787909
 31
0.0
  0
LINE
  5
84
330
21
100
AcDbEntity
  8
0
370
    -3
100
AcDbLine
 10
-12.39810109238897
 20
29.99999999999818
 30
0.0
 11
-25.30000000000291
 21
29.99999999999818
 31
0.0
  0
LINE
  5
85
330
21
100
AcDbEntity
  8
0
370
    -3
100
AcDbLine
 10
-25.30000000000291
 20
29.99999999999818
 30
0.0
 11
-25.30000000000291
 21
37.26977419787909
 31
0.0
  0
LINE
  5
86
330
21
100
AcDbEntity
  8
0
370
    -3
100
AcDbLine
 10
-20.90000000000327
 20
37.26977419787909
 30
0.0
 11
-25.30000000000291
 21
37.26977419787909
 31
0.0
  0
LINE
  5
87
330
21
100
AcDbEntity
  8
0
370
    -3
100
AcDbLine
 10
-12.39810109238533
 20
7.499999999998181
 30
0.0
 11
-25.30000000000291
 21
7.499999999998181
 31
0.0
  0
LINE
  5
88
330
21
100
AcDbEntity
  8
0
370
    -3
100
AcDbLine
 10
-12.39810109238897
 20
-0.000000000001819
 30
0.0
 11
-25.30000000000291
 21
-0.000000000001819
 31
0.0
  0
LINE
  5
89
330
21
100
AcDbEntity
  8
0
370
    -3
100
AcDbLine
 10
-25.30000000000291
 20
-0.000000000001819
 30
0.0
 11
-25.30000000000291
 21
7.499999999998181
 31
0.0
  0
LINE
  5
8A
330
21
100
AcDbEntity
  8
0
370
    -3
100
AcDbLine
 10
-12.39810109238533
 20
22.49999999999818
 30
0.0
 11
-25.30000000000291
 21
22.49999999999818
 31
0.0
  0
LINE
  5
8B
330
21
100
AcDbEntity
  8
0
370
    -3
100
AcDbLine
 10
-12.39810109238897
 20
14.99999999999818
 30
0.0
 11
-25.30000000000291
 21
14.99999999999818
 31
0.0
  0
LINE
  5
8C
330
21
100
AcDbEntity
  8
0
370
    -3
100
AcDbLine
 10
-25.30000000000291
 20
14.99999999999818
 30
0.0
 11
-25.30000000000291
 21
22.49999999999818
 31
0.0
  0
ELLIPSE
  5
8D
330
21
100
AcDbEntity
  8
0
370
    -3
100
AcDbEllipse
 10
-4.600100270383336
 20
38.55554134495287
 30
0.0000000000000017
 11
-30.5127717080634
 21
-3.349353946974424E-15
 31
-4.137088434604292E-30
210
-1.355854680848614E-31
220
4.919992267235659E-32
230
1.0
 40
0.0349207694917575
 41
1.276600548141434
 42
1.541299490307471
  0
LINE
  5
8E
330
21
100
AcDbEntity
  8
0
370
    -3
100
AcDbLine
 10
-14.90000000000146
 20
-34.50000000000364
 30
0.0
 11
-14.90000000000146
 21
-35.56627941855731
 31
0.0
  0
ELLIPSE
  5
8F
330
21
100
AcDbEntity
  8
0
370
    -3
100
AcDbEllipse
 10
-4.600100270381517
 20
-38.55554134495287
 30
-0.0000000000000045
 11
-30.5127717080634
 21
-3.429618633710209E-15
 31
0.0
210
-5.554589576517530E-48
220
4.941830033647669E-32
230
1.0
 40
0.0349207694917334
 41
4.741885816876318
 42
5.056163327861306
  0
LINE
  5
90
330
21
100
AcDbEntity
  8
0
370
    -3
100
AcDbLine
 10
-12.39810109238533
 20
-7.500000000001819
 30
0.0
 11
-25.30000000000291
 21
-7.500000000001819
 31
0.0
  0
LINE
  5
91
330
21
100
AcDbEntity
  8
0
370
    -3
100
AcDbLine
 10
-12.39810109238897
 20
-15.00000000000182
 30
0.0
 11
-25.30000000000291
 21
-15.00000000000182
 31
0.0
  0
LINE
  5
92
330
21
100
AcDbEntity
  8
0
370
    -3
100
AcDbLine
 10
-25.30000000000291
 20
-15.00000000000182
 30
0.0
 11
-25.30000000000291
 21
-7.500000000001819
 31
0.0
  0
LINE
  5
93
330
21
100
AcDbEntity
  8
0
370
    -3
100
AcDbLine
 10
-12.39810109238533
 20
-22.50000000000182
 30
0.0
 11
-25.30000000000291
 21
-22.50000000000182
 31
0.0
  0
LINE
  5
94
330
21
100
AcDbEntity
  8
0
370
    -3
100
AcDbLine
 10
-12.39810109238897
 20
-30.00000000000182
 30
0.0
 11
-25.30000000000291
 21
-30.00000000000182
 31
0.0
  0
LINE
  5
95
330
21
100
AcDbEntity
  8
0
370
    -3
100
AcDbLine
 10
-25.30000000000291
 20
-30.00000000000182
 30
0.0
 11
-25.30000000000291
 21
-22.50000000000182
 31
0.0
  0
LINE
  5
96
330
21
100
AcDbEntity
  8
0
370
    -3
100
AcDbLine
 10
-14.88421614138133
 20
-37.55235679812904
 30
0.0
 11
-14.90000000000146
 21
-37.55235679812904
 31
0.0
  0
ARC
  5
97
330
21
100
AcDbEntity
  8
0
370
    -3
100
AcDbCircle
 10
2.293970108323265
 20
-35.70000000000073
 30
-0.0000000000000027
 40
2.000000000000191
100
AcDbArc
 50
270.0
 51
296.4610231385998
  0
LINE
  5
98
330
21
100
AcDbEntity
  8
0
370
    -3
100
AcDbLine
 10
2.293970108323265
 20
-37.70000000000073
 30
0.0
 11
-25.30000000000291
 21
-37.70000000000073
 31
0.0
  0
LINE
  5
99
330
21
100
AcDbEntity
  8
0
370
    -3
100
AcDbLine
 10
-25.30000000000291
 20
-37.70000000000073
 30
0.0
 11
-25.30000000000291
 21
-37.55235679812904
 31
0.0
  0
LINE
  5
9A
330
21
100
AcDbEntity
  8
0
370
    -3
100
AcDbLine
 10
-20.89999999999782
 20
-37.55235679812904
 30
0.0
 11
-25.30000000000291
 21
-37.55235679812904
 31
0.0
  0
LINE
  5
9B
330
21
100
AcDbEntity
  8
0
370
    -3
100
AcDbLine
 10
-20.89999999999782
 20
-37.63015846101734
 30
0.0
 11
-20.89999999999782
 21
-37.55235679812904
 31
0.0
  0
LINE
  5
9C
330
21
100
AcDbEntity
  8
0
370
    -3
100
AcDbLine
 10
-14.90000000000146
 20
-37.63015846101734
 30
0.0
 11
-20.89999999999782
 21
-37.63015846101734
 31
0.0
  0
LINE
  5
9D
330
21
100
AcDbEntity
  8
0
370
    -3
100
AcDbLine
 10
-14.90000000000146
 20
-37.55235679812904
 30
0.0
 11
-14.90000000000146
 21
-37.63015846101734
 31
0.0
  0
ARC
  5
9E
330
21
100
AcDbEntity
  8
0
370
    -3
100
AcDbCircle
 10
2.293970108323265
 20
35.69999999999891
 30
0.000000000000001
 40
2.0
100
AcDbArc
 50
63.53897686133612
 51
90.0
  0
LINE
  5
9F
330
21
100
AcDbEntity
  8
0
370
    -3
100
AcDbLine
 10
-20.90000000000327
 20
37.53579165634255
 30
0.0
 11
-25.30000000000291
 21
37.53579165634255
 31
0.0
  0
LINE
  5
A0
330
21
100
AcDbEntity
  8
0
370
    -3
100
AcDbLine
 10
-25.30000000000291
 20
37.53579165634255
 30
0.0
 11
-25.30000000000291
 21
37.69999999999891
 31
0.0
  0
LINE
  5
A1
330
21
100
AcDbEntity
  8
0
370
    -3
100
AcDbLine
 10
2.293970108323265
 20
37.69999999999891
 30
0.0
 11
-25.30000000000291
 21
37.69999999999891
 31
0.0
  0
LINE
  5
A2
330
21
100
AcDbEntity
  8
0
370
    -3
100
AcDbLine
 10
-13.44789708817189
 20
37.53579165634255
 30
0.0
 11
-14.90000000000691
 21
37.53579165634255
 31
0.0
  0
LINE
  5
A3
330
21
100
AcDbEntity
  8
0
370
    -3
100
AcDbLine
 10
-14.90000000000691
 20
37.63015846101553
 30
0.0
 11
-14.90000000000691
 21
37.53579165634255
 31
0.0
  0
LINE
  5
A4
330
21
100
AcDbEntity
  8
0
370
    -3
100
AcDbLine
 10
-20.90000000000327
 20
37.63015846101553
 30
0.0
 11
-14.90000000000691
 21
37.63015846101553
 31
0.0
  0
LINE
  5
A5
330
21
100
AcDbEntity
  8
0
370
    -3
100
AcDbLine
 10
-20.90000000000327
 20
37.53579165634255
 30
0.0
 11
-20.90000000000327
 21
37.63015846101553
 31
0.0
  0
LINE
  5
A6
330
21
100
AcDbEntity
  8
0
370
    -3
100
AcDbLine
 10
-25.30000000000291
 20
29.99999999999818
 30
0.0
 11
-25.50000000000182
 21
30.09958506223848
 31
0.0
  0
LINE
  5
A7
330
21
100
AcDbEntity
  8
0
370
    -3
100
AcDbLine
 10
-25.50000000000182
 20
37.17630301586178
 30
0.0
 11
-25.50000000000182
 21
33.70500000032007
 31
0.0
  0
LINE
  5
A8
330
21
100
AcDbEntity
  8
0
370
    -3
100
AcDbLine
 10
-25.30000000000291
 20
37.26977419787909
 30
0.0
 11
-25.50000000000182
 21
37.17630301586178
 31
0.0
  0
LINE
  5
A9
330
21
100
AcDbEntity
  8
0
370
    -3
100
AcDbLine
 10
-25.30000000000291
 20
7.499999999998181
 30
0.0
 11
-25.50000000000182
 21
7.400414937757887
 31
0.0
  0
LINE
  5
AA
330
21
100
AcDbEntity
  8
0
370
    -3
100
AcDbLine
 10
-25.30000000000291
 20
-0.000000000001819
 30
0.0
 11
-25.50000000000182
 21
0.0995850622384751
 31
0.0
  0
LINE
  5
AB
330
21
100
AcDbEntity
  8
0
370
    -3
100
AcDbLine
 10
-25.50000000000182
 20
7.400414937757887
 30
0.0
 11
-25.50000000000182
 21
3.705000000323707
 31
0.0
  0
LINE
  5
AC
330
21
100
AcDbEntity
  8
0
370
    -3
100
AcDbLine
 10
-25.50000000000182
 20
22.40041493775789
 30
0.0
 11
-25.30000000000291
 21
22.49999999999818
 31
0.0
  0
LINE
  5
AD
330
21
100
AcDbEntity
  8
0
370
    -3
100
AcDbLine
 10
-25.30000000000291
 20
14.99999999999818
 30
0.0
 11
-25.50000000000182
 21
15.09958506223848
 31
0.0
  0
LINE
  5
AE
330
21
100
AcDbEntity
  8
0
370
    -3
100
AcDbLine
 10
-25.50000000000182
 20
22.40041493775789
 30
0.0
 11
-25.50000000000182
 21
18.70500000032371
 31
0.0
  0
LINE
  5
AF
330
21
100
AcDbEntity
  8
0
370
    -3
100
AcDbLine
 10
-25.30000000000291
 20
-7.500000000001819
 30
0.0
 11
-25.50000000000182
 21
-7.599585062242113
 31
0.0
  0
LINE
  5
B0
330
21
100
AcDbEntity
  8
0
370
    -3
100
AcDbLine
 10
-25.50000000000182
 20
-14.90041493776152
 30
0.0
 11
-25.30000000000291
 21
-15.00000000000182
 31
0.0
  0
LINE
  5
B1
330
21
100
AcDbEntity
  8
0
370
    -3
100
AcDbLine
 10
-25.50000000000182
 20
-7.599585062242113
 30
0.0
 11
-25.50000000000182
 21
-14.90041493776152
 31
0.0
  0
LINE
  5
B2
330
21
100
AcDbEntity
  8
0
370
    -3
100
AcDbLine
 10
-25.50000000000182
 20
-22.59958506224211
 30
0.0
 11
-25.50000000000182
 21
-29.90041493776152
 31
0.0
  0
LINE
  5
B3
330
21
100
AcDbEntity
  8
0
370
    -3
100
AcDbLine
 10
-25.50000000000182
 20
-22.59958506224211
 30
0.0
 11
-25.30000000000291
 21
-22.50000000000182
 31
0.0
  0
LINE
  5
B4
330
21
100
AcDbEntity
  8
0
370
    -3
100
AcDbLine
 10
-25.50000000000182
 20
-29.90041493776152
 30
0.0
 11
-25.30000000000291
 21
-30.00000000000182
 31
0.0
  0
LINE
  5
B5
330
21
100
AcDbEntity
  8
0
370
    -3
100
AcDbLine
 10
-14.90000000000691
 20
37.53579165634255
 30
0.0
 11
-14.90000000000691
 21
37.26977419787909
 31
0.0
  0
LINE
  5
B6
330
21
100
AcDbEntity
  8
0
370
    -3
100
AcDbLine
 10
-20.90000000000327
 20
37.26977419787909
 30
0.0
 11
-20.90000000000327
 21
37.53579165634255
 31
0.0
  0
LINE
  5
B7
330
21
100
AcDbEntity
  8
0
370
    -3
100
AcDbLine
 10
-25.50000000000182
 20
37.49987809113918
 30
0.0
 11
-25.50000000000182
 21
37.42213203435495
 31
0.0
  0
LINE
  5
B8
330
21
100
AcDbEntity
  8
0
370
    -3
100
AcDbLine
 10
-25.50000000000182
 20
37.29590061525414
 30
0.0
 11
-25.50000000000182
 21
37.17630301585996
 31
0.0
  0
LINE
  5
B9
330
21
100
AcDbEntity
  8
0
370
    -3
100
AcDbLine
 10
-25.50000000000182
 20
26.20499999965796
 30
0.0
 11
-25.50000000000182
 21
22.40041493775789
 31
0.0
  0
LINE
  5
BA
330
21
100
AcDbEntity
  8
0
370
    -3
100
AcDbLine
 10
-25.50000000000182
 20
11.20499999965432
 30
0.0
 11
-25.50000000000182
 21
7.400414937757887
 31
0.0
  0
LINE
  5
BB
330
21
100
AcDbEntity
  8
0
370
    -3
100
AcDbLine
 10
-25.50000000000182
 20
-3.795000000345681
 30
0.0
 11
-25.50000000000182
 21
-7.599585062242113
 31
0.0
  0
LINE
  5
BC
330
21
100
AcDbEntity
  8
0
370
    -3
100
AcDbLine
 10
-25.50000000000182
 20
-14.90041493776152
 30
0.0
 11
-25.50000000000182
 21
-22.59958506224211
 31
0.0
  0
LINE
  5
BD
330
21
100
AcDbEntity
  8
0
370
    -3
100
AcDbLine
 10
-25.50000000000182
 20
-29.90041493776152
 30
0.0
 11
-25.50000000000182
 21
-36.92929348853977
 31
0.0
  0
LINE
  5
BE
330
21
100
AcDbEntity
  8
0
370
    -3
100
AcDbLine
 10
-25.50000000000182
 20
-36.92929348853977
 30
0.0
 11
-25.50000000000182
 21
-37.35247863272525
 31
0.0
  0
LINE
  5
BF
330
21
100
AcDbEntity
  8
0
370
    -3
100
AcDbLine
 10
-25.50000000000182
 20
-37.35247863272525
 30
0.0
 11
-25.50000000000182
 21
-37.499878091141
 31
0.0
  0
LINE
  5
C0
330
21
100
AcDbEntity
  8
0
370
    -3
100
AcDbLine
 10
-20.89999999999782
 20
-36.84704822448839
 30
0.0
 11
-20.89999999999782
 21
-34.50000000000364
 31
0.0
  0
LINE
  5
C1
330
21
100
AcDbEntity
  8
0
370
    -3
100
AcDbLine
 10
-20.89999999999782
 20
-36.84704822448839
 30
0.0
 11
-25.30000000000291
 21
-36.84704822448839
 31
0.0
  0
LINE
  5
C2
330
21
100
AcDbEntity
  8
0
370
    -3
100
AcDbLine
 10
-25.30000000000291
 20
-36.84704822448839
 30
0.0
 11
-25.30000000000291
 21
-30.00000000000182
 31
0.0
  0
LINE
  5
C3
330
21
100
AcDbEntity
  8
0
370
    -3
100
AcDbLine
 10
-25.30000000000291
 20
37.53579165634255
 30
0.0
 11
-25.50000000000182
 21
37.33591349093876
 31
0.0
  0
LINE
  5
C4
330
21
100
AcDbEntity
  8
0
370
    -3
100
AcDbLine
 10
-25.30000000000291
 20
37.26977419787909
 30
0.0
 11
-25.30000000000291
 21
37.53579165634255
 31
0.0
  0
LINE
  5
C5
330
21
100
AcDbEntity
  8
0
370
    -3
100
AcDbLine
 10
-13.56600609826455
 20
-36.84704822448839
 30
0.0
 11
-14.90000000000146
 21
-36.84704822448839
 31
0.0
  0
LINE
  5
C6
330
21
100
AcDbEntity
  8
0
370
    -3
100
AcDbLine
 10
-14.90000000000146
 20
-35.56627941855731
 30
0.0
 11
-14.90000000000146
 21
-36.84704822448839
 31
0.0
  0
LINE
  5
C7
330
21
100
AcDbEntity
  8
0
370
    -3
100
AcDbLine
 10
-25.30000000000291
 20
22.49999999999818
 30
0.0
 11
-25.30000000000291
 21
29.99999999999818
 31
0.0
  0
LINE
  5
C8
330
21
100
AcDbEntity
  8
0
370
    -3
100
AcDbLine
 10
-25.30000000000291
 20
7.499999999998181
 30
0.0
 11
-25.30000000000291
 21
14.99999999999818
 31
0.0
  0
LINE
  5
C9
330
21
100
AcDbEntity
  8
0
370
    -3
100
AcDbLine
 10
-25.30000000000291
 20
-7.500000000001819
 30
0.0
 11
-25.30000000000291
 21
-0.000000000001819
 31
0.0
  0
LINE
  5
CA
330
21
100
AcDbEntity
  8
0
370
    -3
100
AcDbLine
 10
-25.30000000000291
 20
-22.50000000000182
 30
0.0
 11
-25.30000000000291
 21
-15.00000000000182
 31
0.0
  0
LINE
  5
CB
330
21
100
AcDbEntity
  8
0
370
    -3
100
AcDbLine
 10
-25.30000000000291
 20
-36.84704822448839
 30
0.0
 11
-25.50000000000182
 21
-36.92929348853977
 31
0.0
  0
LINE
  5
CC
330
21
100
AcDbEntity
  8
0
370
    -3
100
AcDbLine
 10
-25.30000000000291
 20
-37.55235679812904
 30
0.0
 11
-25.50000000000182
 21
-37.35247863272525
 31
0.0
  0
LINE
  5
CD
330
21
100
AcDbEntity
  8
0
370
    -3
100
AcDbLine
 10
-25.30000000000291
 20
-37.55235679812904
 30
0.0
 11
-25.30000000000291
 21
-36.84704822448839
 31
0.0
  0
LINE
  5
CE
330
21
100
AcDbEntity
  8
0
370
    -3
100
AcDbLine
 10
-20.89999999999782
 20
-37.55235679812904
 30
0.0
 11
-20.89999999999782
 21
-36.84704822448839
 31
0.0
  0
LINE
  5
CF
330
21
100
AcDbEntity
  8
0
370
    -3
100
AcDbLine
 10
-14.90000000000146
 20
-36.84704822448839
 30
0.0
 11
-14.90000000000146
 21
-37.55235679812904
 31
0.0
  0
LINE
  5
D0
330
21
100
AcDbEntity
  8
0
370
    -3
100
AcDbLine
 10
-25.30000000000291
 20
37.69999999999891
 30
0.0
 11
-25.49987816540488
 21
37.5
 31
0.0
  0
LINE
  5
D1
330
21
100
AcDbEntity
  8
0
370
    -3
100
AcDbLine
 10
-25.49987816540488
 20
37.5
 30
0.0
 11
-25.50000000000182
 21
37.49987809113918
 31
0.0
  0
LINE
  5
D2
330
21
100
AcDbEntity
  8
0
370
    -3
100
AcDbLine
 10
-25.50000000000182
 20
-37.499878091141
 30
0.0
 11
-25.30000000000291
 21
-37.70000000000073
 31
0.0
  0
LINE
  5
D3
330
21
100
AcDbEntity
  8
0
370
    -3
100
AcDbLine
 10
-17.39999999999782
 20
-35.00000000000364
 30
0.0
 11
-17.39999999999782
 21
-35.850000000004
 31
0.0
  0
LINE
  5
D4
330
21
100
AcDbEntity
  8
0
370
    -3
100
AcDbLine
 10
-19.24999999999818
 20
-35.00000000000364
 30
0.0
 11
-19.24999999999818
 21
-34.00000000000364
 31
0.0
  0
LINE
  5
D5
330
21
100
AcDbEntity
  8
0
370
    -3
100
AcDbLine
 10
-17.39999999999782
 20
-33.15000000000509
 30
0.0
 11
-17.39999999999782
 21
-34.00000000000364
 31
0.0
  0
LINE
  5
D6
330
21
100
AcDbEntity
  8
0
370
    -3
100
AcDbLine
 10
-18.39999999999782
 20
-35.00000000000364
 30
0.0
 11
-19.24999999999818
 21
-35.00000000000364
 31
0.0
  0
LINE
  5
D7
330
21
100
AcDbEntity
  8
0
370
    -3
100
AcDbLine
 10
-18.39999999999782
 20
-35.850000000004
 30
0.0
 11
-18.39999999999782
 21
-35.00000000000364
 31
0.0
  0
LINE
  5
D8
330
21
100
AcDbEntity
  8
0
370
    -3
100
AcDbLine
 10
-18.39999999999782
 20
-34.00000000000364
 30
0.0
 11
-18.39999999999782
 21
-33.15000000000509
 31
0.0
  0
LINE
  5
D9
330
21
100
AcDbEntity
  8
0
370
    -3
100
AcDbLine
 10
-19.24999999999818
 20
-34.00000000000364
 30
0.0
 11
-18.39999999999782
 21
-34.00000000000364
 31
0.0
  0
LINE
  5
DA
330
21
100
AcDbEntity
  8
0
370
    -3
100
AcDbLine
 10
-16.54999999999927
 20
-35.00000000000364
 30
0.0
 11
-17.39999999999782
 21
-35.00000000000364
 31
0.0
  0
LINE
  5
DB
330
21
100
AcDbEntity
  8
0
370
    -3
100
AcDbLine
 10
-17.39999999999782
 20
-35.850000000004
 30
0.0
 11
-18.39999999999782
 21
-35.850000000004
 31
0.0
  0
CIRCLE
  5
DC
330
21
100
AcDbEntity
  8
0
370
    -3
100
AcDbCircle
 10
17.89999999999782
 20
-34.50000000000364
 30
-0.000000000000016
 40
1.95
210
2.178434001012402E-17
220
5.624052567047245E-16
230
-1.0
  0
LINE
  5
DD
330
21
100
AcDbEntity
  8
0
370
    -3
100
AcDbLine
 10
-16.54999999999927
 20
-34.00000000000364
 30
0.0
 11
-16.54999999999927
 21
-35.00000000000364
 31
0.0
  0
LINE
  5
DE
330
21
100
AcDbEntity
  8
0
370
    -3
100
AcDbLine
 10
-17.39999999999782
 20
-34.00000000000364
 30
0.0
 11
-16.54999999999927
 21
-34.00000000000364
 31
0.0
  0
LINE
  5
DF
330
21
100
AcDbEntity
  8
0
370
    -3
100
AcDbLine
 10
-18.39999999999782
 20
-33.15000000000509
 30
0.0
 11
-17.39999999999782
 21
-33.15000000000509
 31
0.0
  0
ARC
  5
E0
330
21
100
AcDbEntity
  8
0
370
    -3
100
AcDbCircle
 10
-17.89999999999782
 20
-34.50000000000364
 30
-0.0000000000000038
 40
2.75
100
AcDbArc
 50
90.0
 51
0.0
  0
ARC
  5
E1
330
21
100
AcDbEntity
  8
0
370
    -3
100
AcDbCircle
 10
-17.89999999999782
 20
-34.50000000000364
 30
-0.0000000000000038
 40
2.75
100
AcDbArc
 50
0.0
 51
90.0
  0
LINE
  5
E2
330
21
100
AcDbEntity
  8
0
370
    -3
100
AcDbLine
 10
-18.39999999999782
 20
-35.350000000004
 30
0.0
 11
-17.39999999999782
 21
-35.350000000004
 31
0.0
  0
LINE
  5
E3
330
21
100
AcDbEntity
  8
0
370
    -3
100
AcDbLine
 10
-18.74999999999818
 20
-34.00000000000364
 30
0.0
 11
-18.74999999999818
 21
-35.00000000000364
 31
0.0
  0
LINE
  5
E4
330
21
100
AcDbEntity
  8
0
370
    -3
100
AcDbLine
 10
-17.04999999999927
 20
-35.00000000000364
 30
0.0
 11
-17.04999999999927
 21
-34.00000000000364
 31
0.0
  0
LINE
  5
E5
330
21
100
AcDbEntity
  8
0
370
    -3
100
AcDbLine
 10
-17.39999999999782
 20
-33.65000000000509
 30
0.0
 11
-18.39999999999782
 21
-33.65000000000509
 31
0.0
  0
CIRCLE
  5
E6
330
21
100
AcDbEntity
  8
0
370
    -3
100
AcDbCircle
 10
17.90000000000509
 20
34.50000000000364
 30
0.0000000000000202
 40
1.95
210
2.178434001012402E-17
220
5.624052567047245E-16
230
-1.0
  0
LINE
  5
E7
330
21
100
AcDbEntity
  8
0
370
    -3
100
AcDbLine
 10
-16.55000000000655
 20
35.00000000000546
 30
0.0
 11
-16.55000000000655
 21
34.00000000000546
 31
0.0
  0
LINE
  5
E8
330
21
100
AcDbEntity
  8
0
370
    -3
100
AcDbLine
 10
-17.40000000000509
 20
35.00000000000546
 30
0.0
 11
-16.55000000000655
 21
35.00000000000546
 31
0.0
  0
LINE
  5
E9
330
21
100
AcDbEntity
  8
0
370
    -3
100
AcDbLine
 10
-17.40000000000509
 20
35.85000000000582
 30
0.0
 11
-17.40000000000509
 21
35.00000000000546
 31
0.0
  0
LINE
  5
EA
330
21
100
AcDbEntity
  8
0
370
    -3
100
AcDbLine
 10
-18.40000000000509
 20
35.85000000000582
 30
0.0
 11
-17.40000000000509
 21
35.85000000000582
 31
0.0
  0
LINE
  5
EB
330
21
100
AcDbEntity
  8
0
370
    -3
100
AcDbLine
 10
-18.40000000000509
 20
35.00000000000546
 30
0.0
 11
-18.40000000000509
 21
35.85000000000582
 31
0.0
  0
LINE
  5
EC
330
21
100
AcDbEntity
  8
0
370
    -3
100
AcDbLine
 10
-19.25000000000546
 20
35.00000000000546
 30
0.0
 11
-18.40000000000509
 21
35.00000000000546
 31
0.0
  0
LINE
  5
ED
330
21
100
AcDbEntity
  8
0
370
    -3
100
AcDbLine
 10
-19.25000000000546
 20
34.00000000000546
 30
0.0
 11
-19.25000000000546
 21
35.00000000000546
 31
0.0
  0
LINE
  5
EE
330
21
100
AcDbEntity
  8
0
370
    -3
100
AcDbLine
 10
-18.40000000000509
 20
34.00000000000546
 30
0.0
 11
-19.25000000000546
 21
34.00000000000546
 31
0.0
  0
LINE
  5
EF
330
21
100
AcDbEntity
  8
0
370
    -3
100
AcDbLine
 10
-18.40000000000509
 20
33.15000000000509
 30
0.0
 11
-18.40000000000509
 21
34.00000000000546
 31
0.0
  0
LINE
  5
F0
330
21
100
AcDbEntity
  8
0
370
    -3
100
AcDbLine
 10
-17.40000000000509
 20
33.15000000000509
 30
0.0
 11
-18.40000000000509
 21
33.15000000000509
 31
0.0
  0
LINE
  5
F1
330
21
100
AcDbEntity
  8
0
370
    -3
100
AcDbLine
 10
-17.40000000000509
 20
34.00000000000546
 30
0.0
 11
-17.40000000000509
 21
33.15000000000509
 31
0.0
  0
LINE
  5
F2
330
21
100
AcDbEntity
  8
0
370
    -3
100
AcDbLine
 10
-16.55000000000655
 20
34.00000000000546
 30
0.0
 11
-17.40000000000509
 21
34.00000000000546
 31
0.0
  0
ARC
  5
F3
330
21
100
AcDbEntity
  8
0
370
    -3
100
AcDbCircle
 10
-17.90000000000509
 20
34.50000000000364
 30
-0.0000000000000012
 40
2.75
100
AcDbArc
 50
90.0
 51
0.0
  0
ARC
  5
F4
330
21
100
AcDbEntity
  8
0
370
    -3
100
AcDbCircle
 10
-17.90000000000509
 20
34.50000000000364
 30
-0.0000000000000012
 40
2.75
100
AcDbArc
 50
0.0
 51
90.0
  0
LINE
  5
F5
330
21
100
AcDbEntity
  8
0
370
    -3
100
AcDbLine
 10
-18.75000000000546
 20
35.00000000000546
 30
0.0
 11
-18.75000000000546
 21
34.00000000000546
 31
0.0
  0
LINE
  5
F6
330
21
100
AcDbEntity
  8
0
370
    -3
100
AcDbLine
 10
-18.40000000000509
 20
33.65000000000509
 30
0.0
 11
-17.40000000000509
 21
33.65000000000509
 31
0.0
  0
LINE
  5
F7
330
21
100
AcDbEntity
  8
0
370
    -3
100
AcDbLine
 10
-17.05000000000655
 20
34.00000000000546
 30
0.0
 11
-17.05000000000655
 21
35.00000000000546
 31
0.0
  0
LINE
  5
F8
330
21
100
AcDbEntity
  8
0
370
    -3
100
AcDbLine
 10
-17.40000000000509
 20
35.35000000000582
 30
0.0
 11
-18.40000000000509
 21
35.35000000000582
 31
0.0
  0
LINE
  5
F9
330
21
100
AcDbEntity
  8
0
370
    -3
100
AcDbLine
 10
-51.80000000000109
 20
15.90999999999804
 30
0.0
 11
-51.80000000000109
 21
21.40999999999804
 31
0.0
  0
ARC
  5
FA
330
21
100
AcDbEntity
  8
0
370
    -3
100
AcDbCircle
 10
-51.80000000000109
 20
20.60999999999876
 30
0.0000000000000037
 40
0.8
100
AcDbArc
 50
90.0
 51
180.0
  0
ARC
  5
FB
330
21
100
AcDbEntity
  8
0
370
    -3
100
AcDbCircle
 10
-51.80000000000109
 20
16.70999999999731
 30
0.000000000000002
 40
0.8
100
AcDbArc
 50
180.0
 51
270.0
  0
LINE
  5
FC
330
21
100
AcDbEntity
  8
0
370
    -3
100
AcDbLine
 10
-52.60000000000218
 20
20.60999999999876
 30
0.0
 11
-52.60000000000218
 21
16.70999999999731
 31
0.0
  0
LINE
  5
FD
330
21
100
AcDbEntity
  8
0
370
    -3
100
AcDbLine
 10
-51.80000000000109
 20
15.90999999999804
 30
0.0
 11
-50.60000000000218
 21
15.90999999999804
 31
0.0
  0
LINE
  5
FE
330
21
100
AcDbEntity
  8
0
370
    -3
100
AcDbLine
 10
-50.60000000000218
 20
21.40999999999804
 30
0.0
 11
-51.80000000000109
 21
21.40999999999804
 31
0.0
  0
LINE
  5
FF
330
21
100
AcDbEntity
  8
0
370
    -3
100
AcDbLine
 10
-25.70000000000255
 20
37.40999999999622
 30
0.0
 11
-52.70000000000255
 21
37.40999999999622
 31
0.0
  0
LINE
  5
100
330
21
100
AcDbEntity
  8
0
370
    -3
100
AcDbLine
 10
-25.70000000000255
 20
37.40999999999804
 30
0.0
 11
-25.70000000000255
 21
29.90999999999622
 31
0.0
  0
LINE
  5
101
330
21
100
AcDbEntity
  8
0
370
    -3
100
AcDbLine
 10
-25.70000000000255
 20
29.90999999999622
 30
0.0
 11
-52.70000000000255
 21
29.90999999999622
 31
0.0
  0
LINE
  5
102
330
21
100
AcDbEntity
  8
0
370
    -3
100
AcDbLine
 10
-52.70000000000255
 20
29.90999999999622
 30
0.0
 11
-52.70000000000255
 21
37.40999999999804
 31
0.0
  0
LINE
  5
103
330
21
100
AcDbEntity
  8
0
370
    -3
100
AcDbLine
 10
-52.70000000000255
 20
21.65999999999804
 30
0.0
 11
-50.60000000000218
 21
21.65999999999804
 31
0.0
  0
LINE
  5
104
330
21
100
AcDbEntity
  8
0
370
    -3
100
AcDbLine
 10
-52.70000000000255
 20
21.65999999999804
 30
0.0
 11
-52.70000000000255
 21
22.40999999999804
 31
0.0
  0
LINE
  5
105
330
21
100
AcDbEntity
  8
0
370
    -3
100
AcDbLine
 10
-25.70000000000255
 20
22.40999999999622
 30
0.0
 11
-52.70000000000255
 21
22.40999999999804
 31
0.0
  0
LINE
  5
106
330
21
100
AcDbEntity
  8
0
370
    -3
100
AcDbLine
 10
-25.70000000000255
 20
22.40999999999804
 30
0.0
 11
-25.70000000000255
 21
14.90999999999622
 31
0.0
  0
LINE
  5
107
330
21
100
AcDbEntity
  8
0
370
    -3
100
AcDbLine
 10
-25.70000000000255
 20
14.90999999999622
 30
0.0
 11
-52.70000000000255
 21
14.90999999999804
 31
0.0
  0
LINE
  5
108
330
21
100
AcDbEntity
  8
0
370
    -3
100
AcDbLine
 10
-52.70000000000255
 20
14.90999999999804
 30
0.0
 11
-52.70000000000255
 21
15.65999999999804
 31
0.0
  0
LINE
  5
109
330
21
100
AcDbEntity
  8
0
370
    -3
100
AcDbLine
 10
-50.60000000000218
 20
15.65999999999804
 30
0.0
 11
-52.70000000000255
 21
15.65999999999804
 31
0.0
  0
LINE
  5
10A
330
21
100
AcDbEntity
  8
0
370
    -3
100
AcDbLine
 10
-50.60000000000218
 20
21.65999999999804
 30
0.0
 11
-50.60000000000218
 21
15.65999999999804
 31
0.0
  0
LINE
  5
10B
330
21
100
AcDbEntity
  8
0
370
    -3
100
AcDbLine
 10
-25.70000000000255
 20
-0.0900000000019645
 30
0.0
 11
-25.50000000000182
 21
0.0095850622383296
 31
0.0
  0
LINE
  5
10C
330
21
100
AcDbEntity
  8
0
370
    -3
100
AcDbLine
 10
-25.70000000000255
 20
7.409999999998035
 30
0.0
 11
-25.70000000000255
 21
-0.0900000000019645
 31
0.0
  0
LINE
  5
10D
330
21
100
AcDbEntity
  8
0
370
    -3
100
AcDbLine
 10
-25.70000000000255
 20
7.409999999998035
 30
0.0
 11
-25.50000000000182
 21
7.310414937755922
 31
0.0
  0
LINE
  5
10E
330
21
100
AcDbEntity
  8
0
370
    -3
100
AcDbLine
 10
-25.50000000000182
 20
0.0095850622383296
 30
0.0
 11
-25.50000000000182
 21
3.705000000323707
 31
0.0
  0
LINE
  5
10F
330
21
100
AcDbEntity
  8
0
370
    -3
100
AcDbLine
 10
-52.90000000000146
 20
7.310414937757741
 30
0.0
 11
-52.90000000000146
 21
0.0095850622383296
 31
0.0
  0
LINE
  5
110
330
21
100
AcDbEntity
  8
0
370
    -3
100
AcDbLine
 10
-52.70000000000255
 20
7.409999999998035
 30
0.0
 11
-52.90000000000146
 21
7.310414937755922
 31
0.0
  0
LINE
  5
111
330
21
100
AcDbEntity
  8
0
370
    -3
100
AcDbLine
 10
-52.70000000000255
 20
-0.0900000000019645
 30
0.0
 11
-52.70000000000255
 21
7.409999999998035
 31
0.0
  0
LINE
  5
112
330
21
100
AcDbEntity
  8
0
370
    -3
100
AcDbLine
 10
-52.70000000000255
 20
-0.0900000000019645
 30
0.0
 11
-52.90000000000146
 21
0.0095850622383296
 31
0.0
  0
LINE
  5
113
330
21
100
AcDbEntity
  8
0
370
    -3
100
AcDbLine
 10
-25.70000000000255
 20
14.90999999999622
 30
0.0
 11
-25.50000000000182
 21
15.00958506223833
 31
0.0
  0
LINE
  5
114
330
21
100
AcDbEntity
  8
0
370
    -3
100
AcDbLine
 10
-25.70000000000255
 20
22.40999999999622
 30
0.0
 11
-25.50000000000182
 21
22.31041493775774
 31
0.0
  0
LINE
  5
115
330
21
100
AcDbEntity
  8
0
370
    -3
100
AcDbLine
 10
-25.50000000000182
 20
15.00958506223833
 30
0.0
 11
-25.50000000000182
 21
18.70500000032371
 31
0.0
  0
LINE
  5
116
330
21
100
AcDbEntity
  8
0
370
    -3
100
AcDbLine
 10
-25.70000000000255
 20
29.90999999999622
 30
0.0
 11
-25.50000000000182
 21
30.00958506223833
 31
0.0
  0
LINE
  5
117
330
21
100
AcDbEntity
  8
0
370
    -3
100
AcDbLine
 10
-25.70000000000255
 20
37.40999999999622
 30
0.0
 11
-25.50000000000182
 21
37.31041493775774
 31
0.0
  0
LINE
  5
118
330
21
100
AcDbEntity
  8
0
370
    -3
100
AcDbLine
 10
-25.50000000000182
 20
30.00958506223833
 30
0.0
 11
-25.50000000000182
 21
33.70500000032007
 31
0.0
  0
LINE
  5
119
330
21
100
AcDbEntity
  8
0
370
    -3
100
AcDbLine
 10
-25.70000000000255
 20
7.409999999998035
 30
0.0
 11
-52.70000000000255
 21
7.409999999998035
 31
0.0
  0
LINE
  5
11A
330
21
100
AcDbEntity
  8
0
370
    -3
100
AcDbLine
 10
-25.70000000000255
 20
-0.0900000000019645
 30
0.0
 11
-52.70000000000255
 21
-0.0900000000019645
 31
0.0
  0
LINE
  5
11B
330
21
100
AcDbEntity
  8
0
370
    -3
100
AcDbLine
 10
-52.90000000000146
 20
37.31041493775774
 30
0.0
 11
-52.90000000000146
 21
30.00958506223833
 31
0.0
  0
LINE
  5
11C
330
21
100
AcDbEntity
  8
0
370
    -3
100
AcDbLine
 10
-52.70000000000255
 20
37.40999999999622
 30
0.0
 11
-52.90000000000146
 21
37.31041493775774
 31
0.0
  0
LINE
  5
11D
330
21
100
AcDbEntity
  8
0
370
    -3
100
AcDbLine
 10
-52.70000000000255
 20
29.90999999999622
 30
0.0
 11
-52.90000000000146
 21
30.00958506223833
 31
0.0
  0
LINE
  5
11E
330
21
100
AcDbEntity
  8
0
370
    -3
100
AcDbLine
 10
-25.50000000000182
 20
-3.795000000345681
 30
0.0
 11
-25.50000000000182
 21
0.0095850622383296
 31
0.0
  0
LINE
  5
11F
330
21
100
AcDbEntity
  8
0
370
    -3
100
AcDbLine
 10
-25.50000000000182
 20
11.20499999965432
 30
0.0
 11
-25.50000000000182
 21
15.00958506223833
 31
0.0
  0
LINE
  5
120
330
21
100
AcDbEntity
  8
0
370
    -3
100
AcDbLine
 10
-25.50000000000182
 20
26.20499999965796
 30
0.0
 11
-25.50000000000182
 21
30.00958506223833
 31
0.0
  0
LINE
  5
121
330
21
100
AcDbEntity
  8
0
370
    -3
100
AcDbLine
 10
-25.50000000000182
 20
37.31041493775774
 30
0.0
 11
-25.50000000000182
 21
37.42213203435495
 31
0.0
  0
LINE
  5
122
330
21
100
AcDbEntity
  8
0
370
    -3
100
AcDbLine
 10
-52.90000000000146
 20
37.42213203435495
 30
0.0
 11
-52.90000000000146
 21
37.31041493775774
 31
0.0
  0
LINE
  5
123
330
21
100
AcDbEntity
  8
0
370
    -3
100
AcDbLine
 10
-52.90000000000146
 20
30.00958506223833
 30
0.0
 11
-52.90000000000146
 21
22.31041493775774
 31
0.0
  0
LINE
  5
124
330
21
100
AcDbEntity
  8
0
370
    -3
100
AcDbLine
 10
-52.90000000000146
 20
22.31041493775774
 30
0.0
 11
-52.90000000000146
 21
21.65999999999804
 31
0.0
  0
LINE
  5
125
330
21
100
AcDbEntity
  8
0
370
    -3
100
AcDbLine
 10
-52.90000000000146
 20
15.65999999999804
 30
0.0
 11
-52.90000000000146
 21
15.00958506223833
 31
0.0
  0
LINE
  5
126
330
21
100
AcDbEntity
  8
0
370
    -3
100
AcDbLine
 10
-52.90000000000146
 20
15.00958506223833
 30
0.0
 11
-52.90000000000146
 21
7.310414937757741
 31
0.0
  0
LINE
  5
127
330
21
100
AcDbEntity
  8
0
370
    -3
100
AcDbLine
 10
-52.90000000000146
 20
0.0095850622383296
 30
0.0
 11
-52.90000000000146
 21
-7.602132034357055
 31
0.0
  0
LINE
  5
128
330
21
100
AcDbEntity
  8
0
370
    -3
100
AcDbLine
 10
-52.70000000000255
 20
14.90999999999804
 30
0.0
 11
-52.90000000000146
 21
15.00958506223833
 31
0.0
  0
LINE
  5
129
330
21
100
AcDbEntity
  8
0
370
    -3
100
AcDbLine
 10
-52.70000000000255
 20
22.40999999999804
 30
0.0
 11
-52.90000000000146
 21
22.31041493775774
 31
0.0
  0
LINE
  5
12A
330
21
100
AcDbEntity
  8
0
370
    -3
100
AcDbLine
 10
-52.70000000000255
 20
-7.361842858259479
 30
0.0
 11
-52.70000000000255
 21
-0.0900000000019645
 31
0.0
  0
LINE
  5
12B
330
21
100
AcDbEntity
  8
0
370
    -3
100
AcDbLine
 10
-25.70000000000255
 20
-0.0900000000019645
 30
0.0
 11
-25.70000000000255
 21
-7.361842858259479
 31
0.0
  0
LINE
  5
12C
330
21
100
AcDbEntity
  8
0
370
    -3
100
AcDbLine
 10
-25.70000000000255
 20
-7.361842858259479
 30
0.0
 11
-52.70000000000255
 21
-7.361842858259479
 31
0.0
  0
LINE
  5
12D
330
21
100
AcDbEntity
  8
0
370
    -3
100
AcDbLine
 10
-25.70000000000255
 20
29.90999999999622
 30
0.0
 11
-25.70000000000255
 21
22.40999999999804
 31
0.0
  0
LINE
  5
12E
330
21
100
AcDbEntity
  8
0
370
    -3
100
AcDbLine
 10
-25.70000000000255
 20
37.62213203435567
 30
0.0
 11
-52.69999999999527
 21
37.62213203436113
 31
0.0
  0
LINE
  5
12F
330
21
100
AcDbEntity
  8
0
370
    -3
100
AcDbLine
 10
-25.70000000000255
 20
37.62213203435567
 30
0.0
 11
-25.70000000000255
 21
37.40999999999804
 31
0.0
  0
LINE
  5
130
330
21
100
AcDbEntity
  8
0
370
    -3
100
AcDbLine
 10
-52.70000000000255
 20
37.40999999999804
 30
0.0
 11
-52.70000000000255
 21
37.62213203435931
 31
0.0
  0
LINE
  5
131
330
21
100
AcDbEntity
  8
0
370
    -3
100
AcDbLine
 10
-52.70000000000255
 20
22.40999999999804
 30
0.0
 11
-52.70000000000255
 21
29.90999999999622
 31
0.0
  0
LINE
  5
132
330
21
100
AcDbEntity
  8
0
370
    -3
100
AcDbLine
 10
-25.70000000000255
 20
14.90999999999622
 30
0.0
 11
-25.70000000000255
 21
7.409999999998035
 31
0.0
  0
LINE
  5
133
330
21
100
AcDbEntity
  8
0
370
    -3
100
AcDbLine
 10
-52.70000000000255
 20
7.409999999998035
 30
0.0
 11
-52.70000000000255
 21
14.90999999999804
 31
0.0
  0
LINE
  5
134
330
21
100
AcDbEntity
  8
0
370
    -3
100
AcDbLine
 10
-25.70000000000255
 20
-7.802132034355964
 30
0.0
 11
-25.55263924456267
 21
-7.654771278916087
 31
0.0
  0
LINE
  5
135
330
21
100
AcDbEntity
  8
0
370
    -3
100
AcDbLine
 10
-52.70000000000255
 20
-7.802132034355964
 30
0.0
 11
-25.70000000000255
 21
-7.802132034355964
 31
0.0
  0
LINE
  5
136
330
21
100
AcDbEntity
  8
0
370
    -3
100
AcDbLine
 10
-52.70000000000255
 20
-7.802132034355964
 30
0.0
 11
-52.84736075544242
 21
-7.654771278916087
 31
0.0
  0
LINE
  5
137
330
21
100
AcDbEntity
  8
0
370
    -3
100
AcDbLine
 10
-52.89999999999782
 20
19.61326471221582
 30
0.0
 11
-52.89999999999964
 21
15.65999999999804
 31
0.0
  0
LINE
  5
138
330
21
100
AcDbEntity
  8
0
370
    -3
100
AcDbLine
 10
-34.70771984000021
 20
-29.24717521593266
 30
0.0
 11
-41.90771984000094
 21
-29.24717521593266
 31
0.0
  0
LINE
  5
139
330
21
100
AcDbEntity
  8
0
370
    -3
100
AcDbLine
 10
-29.40771984000094
 20
-34.74717521593266
 30
0.0
 11
-34.70771984000021
 21
-29.24717521593266
 31
0.0
  0
LINE
  5
13A
330
21
100
AcDbEntity
  8
0
370
    -3
100
AcDbLine
 10
-25.50000000000182
 20
-33.68143344138662
 30
0.0
 11
-29.40771984000094
 21
-34.74717521593266
 31
0.0
  0
LINE
  5
13B
330
21
100
AcDbEntity
  8
0
370
    -3
100
AcDbLine
 10
-41.90771984000094
 20
-29.24717521593266
 30
0.0
 11
-49.70771984000021
 21
-21.24717521593266
 31
0.0
  0
LINE
  5
13C
330
21
100
AcDbEntity
  8
0
370
    -3
100
AcDbLine
 10
-49.70771984000021
 20
-21.24717521593266
 30
0.0
 11
-49.70771984000021
 21
-17.74717521593266
 31
0.0
  0
LINE
  5
13D
330
21
100
AcDbEntity
  8
0
370
    -3
100
AcDbLine
 10
-49.70771984000021
 20
-17.74717521593266
 30
0.0
 11
-50.40771984000094
 21
-17.74717521593266
 31
0.0
  0
LINE
  5
13E
330
21
100
AcDbEntity
  8
0
370
    -3
100
AcDbLine
 10
-50.40771984000094
 20
-17.74717521593266
 30
0.0
 11
-50.40771984000094
 21
-13.74717521593266
 31
0.0
  0
LINE
  5
13F
330
21
100
AcDbEntity
  8
0
370
    -3
100
AcDbLine
 10
-50.40771984000094
 20
-13.74717521593266
 30
0.0
 11
-25.50000000000182
 21
-13.74717521593266
 31
0.0
  0
LINE
  5
140
330
21
100
AcDbEntity
  8
0
370
    -3
100
AcDbLine
 10
-52.71616992778581
 20
19.49204608406762
 30
0.0
 11
-52.60000000000218
 21
19.49204608406762
 31
0.0
  0
LINE
  5
141
330
21
100
AcDbEntity
  8
0
370
    -3
100
AcDbLine
 10
-52.71616992778581
 20
19.49204608406762
 30
0.0
 11
-52.71616992778581
 21
21.66026717834939
 31
0.0
  0
ARC
  5
142
330
21
100
AcDbEntity
  8
0
370
    -3
100
AcDbCircle
 10
-52.71616992778581
 20
19.69204608406835
 30
0.0000000000000032
 40
0.2
100
AcDbArc
 50
180.0
 51
270.0
  0
ARC
  5
143
330
21
100
AcDbEntity
  8
0
370
    -3
100
AcDbCircle
 10
-52.71616992778581
 20
22.79204608406872
 30
0.0000000000000046
 40
0.2
100
AcDbArc
 50
156.8021849046254
 51
180.0
  0
LINE
  5
144
330
21
100
AcDbEntity
  8
0
370
    -3
100
AcDbLine
 10
-52.91616992778654
 20
19.69204608406835
 30
0.0
 11
-52.91616992778654
 21
22.7920169057561
 31
0.0
  0
ARC
  5
145
330
21
100
AcDbEntity
  8
0
370
    -3
100
AcDbCircle
 10
-47.21471862576436
 20
37.5
 30
-0.0000000000000024
 40
0.2999999999999541
100
AcDbArc
 50
45.00000000000001
 51
135.0
  0
LINE
  5
146
330
21
100
AcDbEntity
  8
0
370
    -3
100
AcDbLine
 10
-53.00000000000364
 20
36.5
 30
0.0
 11
-53.00000000000364
 21
37.5
 31
0.0
  0
LINE
  5
147
330
21
100
AcDbEntity
  8
0
370
    -3
100
AcDbLine
 10
-48.09964286625654
 20
37.71213203435582
 30
0.0
 11
-48.00964286626186
 21
37.62213203436113
 31
0.0
  0
LINE
  5
148
330
21
100
AcDbEntity
  8
0
370
    -3
100
AcDbLine
 10
-49.71096320981087
 20
37.62213203436113
 30
0.0
 11
-49.62096320981436
 21
37.71213203435582
 31
0.0
  0
LINE
  5
149
330
21
100
AcDbEntity
  8
0
370
    -3
100
AcDbLine
 10
-50.29375541595073
 20
37.71213203435582
 30
0.0
 11
-50.20375541595604
 21
37.62213203436113
 31
0.0
  0
LINE
  5
14A
330
21
100
AcDbEntity
  8
0
370
    -3
100
AcDbLine
 10
-50.80801948465705
 20
37.62213203436113
 30
0.0
 11
-50.71801948466236
 21
37.71213203435582
 31
0.0
  0
LINE
  5
14B
330
21
100
AcDbEntity
  8
0
370
    -3
100
AcDbLine
 10
-51.39081169079873
 20
37.71213203435582
 30
0.0
 11
-51.30081169080404
 21
37.62213203436113
 31
0.0
  0
LINE
  5
14C
330
21
100
AcDbEntity
  8
0
370
    -3
100
AcDbLine
 10
-51.90507575950505
 20
37.62213203436113
 30
0.0
 11
-51.81507575951036
 21
37.71213203435582
 31
0.0
  0
LINE
  5
14D
330
21
100
AcDbEntity
  8
0
370
    -3
100
AcDbLine
 10
-52.48786796564673
 20
37.71213203435582
 30
0.0
 11
-52.39786796565204
 21
37.62213203436113
 31
0.0
  0
LINE
  5
14E
330
21
100
AcDbEntity
  8
0
370
    -3
100
AcDbLine
 10
-25.57786796564687
 20
37.5
 30
0.0
 11
-25.49987816540488
 21
37.5
 31
0.0
  0
LINE
  5
14F
330
21
100
AcDbEntity
  8
0
370
    -3
100
AcDbLine
 10
-47.00258659140854
 20
37.71213203435582
 30
0.0
 11
-46.91258659141386
 21
37.62213203436113
 31
0.0
  0
LINE
  5
150
330
21
100
AcDbEntity
  8
0
370
    -3
100
AcDbLine
 10
-47.51685066011487
 20
37.62213203436113
 30
0.0
 11
-47.42685066012018
 21
37.71213203435582
 31
0.0
  0
LINE
  5
151
330
21
100
AcDbEntity
  8
0
370
    -3
100
AcDbLine
 10
-51.50000000000364
 20
15.65999999999804
 30
0.0
 11
-51.50000000000364
 21
15.90999999999804
 31
0.0
  0
LINE
  5
152
330
21
100
AcDbEntity
  8
0
370
    -3
100
AcDbLine
 10
-51.50000000000364
 20
21.40999999999804
 30
0.0
 11
-51.50000000000364
 21
21.65999999999804
 31
0.0
  0
ARC
  5
153
330
21
100
AcDbEntity
  8
0
370
    -3
100
AcDbCircle
 10
-52.70000000000255
 20
-7.5
 30
0.0000000000000052
 40
0.300000000000061
100
AcDbArc
 50
180.0
 51
269.5913506734113
  0
LINE
  5
154
330
21
100
AcDbEntity
  8
0
370
    -3
100
AcDbLine
 10
-53.00000000000364
 20
-7.5
 30
0.0
 11
-53.00000000000364
 21
-6.5
 31
0.0
  0
ARC
  5
155
330
21
100
AcDbEntity
  8
0
370
    -3
100
AcDbCircle
 10
-52.50000000000364
 20
-6.5
 30
0.0000000000000056
 40
0.5
100
AcDbArc
 50
143.1301023541143
 51
180.0
  0
ARC
  5
156
330
21
100
AcDbEntity
  8
0
370
    -3
100
AcDbCircle
 10
-52.50000000000364
 20
36.5
 30
-0.0000000000000032
 40
0.5
100
AcDbArc
 50
180.0
 51
216.8698976461775
  0
ARC
  5
157
330
21
100
AcDbEntity
  8
0
370
    -3
100
AcDbCircle
 10
-52.70000000000255
 20
37.5
 30
-0.0000000000000028
 40
0.2999999999999541
100
AcDbArc
 50
45.00000000000001
 51
180.0
  0
ARC
  5
158
330
21
100
AcDbEntity
  8
0
370
    -3
100
AcDbCircle
 10
-51.60294372515455
 20
37.5
 30
-0.0000000000000027
 40
0.2999999999999541
100
AcDbArc
 50
45.00000000000001
 51
135.0
  0
ARC
  5
159
330
21
100
AcDbEntity
  8
0
370
    -3
100
AcDbCircle
 10
-50.50588745030836
 20
37.5
 30
-0.0000000000000026
 40
0.2999999999999541
100
AcDbArc
 50
44.99999999957011
 51
134.9999999999386
  0
ARC
  5
15A
330
21
100
AcDbEntity
  8
0
370
    -3
100
AcDbCircle
 10
-49.40883117546036
 20
37.5
 30
-0.0000000000000025
 40
0.2999999999999541
100
AcDbArc
 50
44.99999999957011
 51
134.9999999999386
  0
LINE
  5
15B
330
21
100
AcDbEntity
  8
0
370
    -3
100
AcDbLine
 10
-49.19669914110273
 20
37.71213203435582
 30
0.0
 11
-49.10669914110986
 21
37.62213203436113
 31
0.0
  0
LINE
  5
15C
330
21
100
AcDbEntity
  8
0
370
    -3
100
AcDbLine
 10
-48.61390693496287
 20
37.62213203436113
 30
0.0
 11
-48.52390693496818
 21
37.71213203435582
 31
0.0
  0
ARC
  5
15D
330
21
100
AcDbEntity
  8
0
370
    -3
100
AcDbCircle
 10
-48.31177490061236
 20
37.5
 30
-0.0000000000000024
 40
0.2999999999999541
100
AcDbArc
 50
45.00000000000001
 51
135.0
  0
LINE
  5
15E
330
21
100
AcDbEntity
  8
0
370
    -3
100
AcDbLine
 10
1.149999999995998
 20
-16.45000000000255
 30
0.0
 11
1.149999999995998
 21
-20.0
 31
0.0
  0
LINE
  5
15F
330
21
100
AcDbEntity
  8
0
370
    -3
100
AcDbLine
 10
0.0
 20
-16.45000000000255
 30
0.0
 11
1.149999999995998
 21
-16.45000000000255
 31
0.0
  0
LINE
  5
160
330
21
100
AcDbEntity
  8
0
370
    -3
100
AcDbLine
 10
5.649999999997817
 20
-33.70000000000073
 30
0.0
 11
4.554558881045523
 21
-33.70000000000073
 31
0.0
  0
LINE
  5
161
330
21
100
AcDbEntity
  8
0
370
    -3
100
AcDbLine
 10
5.649999999997817
 20
-36.45000000000073
 30
0.0
 11
5.649999999997817
 21
-33.70000000000073
 31
0.0
  0
LINE
  5
162
330
21
100
AcDbEntity
  8
0
370
    -3
100
AcDbLine
 10
5.649999999997817
 20
-36.45000000000073
 30
0.0
 11
4.148019730095257
 21
-36.45000000000073
 31
0.0
  0
LINE
  5
163
330
21
100
AcDbEntity
  8
0
370
    -3
100
AcDbLine
 10
5.649999999995998
 20
-18.45000000000073
 30
0.0
 11
5.649999999997817
 21
-33.70000000000073
 31
0.0
  0
LINE
  5
164
330
21
100
AcDbEntity
  8
0
370
    -3
100
AcDbLine
 10
1.149999999995998
 20
-16.45000000000255
 30
0.0
 11
2.185898384857865
 21
-16.45000000000073
 31
0.0
  0
LINE
  5
165
330
21
100
AcDbEntity
  8
0
370
    -3
100
AcDbLine
 10
3.149999999995998
 20
-18.75940107675888
 30
0.0
 11
3.149999999995998
 21
-20.0
 31
0.0
  0
LINE
  5
166
330
21
100
AcDbEntity
  8
0
370
    -3
100
AcDbLine
 10
1.149999999995998
 20
-18.7594010767607
 30
0.0
 11
3.149999999995998
 21
-18.75940107675888
 31
0.0
  0
LINE
  5
167
330
21
100
AcDbEntity
  8
0
370
    -3
100
AcDbLine
 10
2.185898384857865
 20
-16.45000000000073
 30
0.0
 11
5.649999999995998
 21
-18.45000000000073
 31
0.0
  0
ARC
  5
168
330
21
100
AcDbEntity
  8
0
370
    -3
100
AcDbCircle
 10
-24.60000000000218
 20
-36.5
 30
-0.0000000000000053
 40
0.999999999999972
100
AcDbArc
 50
180.0
 51
205.8419327632536
  0
LINE
  5
169
330
21
100
AcDbEntity
  8
0
370
    -3
100
AcDbLine
 10
-25.60000000000218
 20
-8.5
 30
0.0
 11
-25.60000000000218
 21
-12.29008893593164
 31
0.0
  0
LINE
  5
16A
330
21
100
AcDbEntity
  8
0
370
    -3
100
AcDbLine
 10
-25.60000000000218
 20
-34.18587181593284
 30
0.0
 11
-25.60000000000218
 21
-36.5
 31
0.0
  0
ARC
  5
16B
330
21
100
AcDbEntity
  8
0
370
    -3
100
AcDbCircle
 10
-26.60000000000218
 20
-8.5
 30
0.0000000000000069
 40
1.0
100
AcDbArc
 50
0.0
 51
44.25619988466756
  0
ARC
  5
16C
330
21
100
AcDbEntity
  8
0
370
    -3
100
AcDbCircle
 10
-52.60000000000218
 20
-6.299999999999272
 30
0.0000000000000057
 40
0.40000000000002
100
AcDbArc
 50
138.5903778906027
 51
180.0
  0
ARC
  5
16D
330
21
100
AcDbEntity
  8
0
370
    -3
100
AcDbCircle
 10
-52.60000000000218
 20
36.29999999999927
 30
-0.0000000000000033
 40
0.400000000000061
100
AcDbArc
 50
180.0
 51
221.4096221093973
  0
LINE
  5
16E
330
21
100
AcDbEntity
  8
0
370
    -3
100
AcDbLine
 10
-37.10772094000276
 20
-34.18587181593284
 30
0.0
 11
-29.94861220727398
 21
-34.18587181593284
 31
0.0
  0
LINE
  5
16F
330
21
100
AcDbEntity
  8
0
370
    -3
100
AcDbLine
 10
-27.34960737333677
 20
-34.18587181593284
 30
0.0
 11
-25.50000000000182
 21
-34.18587181593284
 31
0.0
  0
LINE
  5
170
330
21
100
AcDbEntity
  8
0
370
    -3
100
AcDbLine
 10
-37.10772094000276
 20
-34.18587181593284
 30
0.0
 11
-37.10772094000276
 21
-34.13008893593178
 31
0.0
  0
ARC
  5
171
330
21
100
AcDbEntity
  8
0
370
    -3
100
AcDbCircle
 10
-37.10772094000276
 20
-33.88587181593175
 30
-0.0000000000000052
 40
0.3
100
AcDbArc
 50
180.0
 51
270.0
  0
ARC
  5
172
330
21
100
AcDbEntity
  8
0
370
    -3
100
AcDbCircle
 10
-37.10772094000276
 20
-33.83008893593251
 30
-0.0000000000000051
 40
0.1
100
AcDbArc
 50
180.0
 51
270.0
  0
LINE
  5
173
330
21
100
AcDbEntity
  8
0
370
    -3
100
AcDbLine
 10
-37.20772094000131
 20
-33.83008893593251
 30
0.0
 11
-37.10772094000276
 21
-33.83008893593251
 31
0.0
  0
LINE
  5
174
330
21
100
AcDbEntity
  8
0
370
    -3
100
AcDbLine
 10
-37.20772094000131
 20
-33.83008893593251
 30
0.0
 11
-37.20772094000131
 21
-29.24717521593266
 31
0.0
  0
LINE
  5
175
330
21
100
AcDbEntity
  8
0
370
    -3
100
AcDbLine
 10
-37.10772094000276
 20
-12.72046503105594
 30
0.0
 11
-37.10772094000276
 21
-13.74717521593266
 31
0.0
  0
LINE
  5
176
330
21
100
AcDbEntity
  8
0
370
    -3
100
AcDbLine
 10
-36.08101075512604
 20
-13.74717521593266
 30
0.0
 11
-37.10772094000276
 21
-12.72046503105594
 31
0.0
  0
LINE
  5
177
330
21
100
AcDbEntity
  8
0
370
    -3
100
AcDbLine
 10
-37.40772094000204
 20
-13.74717521593266
 30
0.0
 11
-37.40772094000204
 21
-12.59535944046729
 31
0.0
  0
LINE
  5
178
330
21
100
AcDbEntity
  8
0
370
    -3
100
AcDbLine
 10
-37.19801950210785
 20
-12.70971284080406
 30
0.0
 11
-37.12713902457472
 21
-12.70971284080406
 31
0.0
  0
LINE
  5
179
330
21
100
AcDbEntity
  8
0
370
    -3
100
AcDbLine
 10
-37.11419363485948
 20
-12.70971284080406
 30
0.0
 11
-37.12713902457472
 21
-12.70971284080406
 31
0.0
  0
LINE
  5
17A
330
21
100
AcDbEntity
  8
0
370
    -3
100
AcDbLine
 10
-27.35772094000276
 20
-13.49008893593236
 30
0.0
 11
-27.35772094000276
 21
-13.74717521593266
 31
0.0
  0
LINE
  5
17B
330
21
100
AcDbEntity
  8
0
370
    -3
100
AcDbLine
 10
-36.98809703512234
 20
-12.58361623116434
 30
0.0
 11
-36.98809703512234
 21
-12.57067082162575
 31
0.0
  0
LINE
  5
17C
330
21
100
AcDbEntity
  8
0
370
    -3
100
AcDbLine
 10
-37.10772094000276
 20
-29.24717521593266
 30
0.0
 11
-37.10772094000276
 21
-33.83008893593251
 31
0.0
  0
LINE
  5
17D
330
21
100
AcDbEntity
  8
0
370
    -3
100
AcDbLine
 10
-37.10772094000276
 20
-34.13008893593178
 30
0.0
 11
-37.10772094000276
 21
-33.83008893593251
 31
0.0
  0
LINE
  5
17E
330
21
100
AcDbEntity
  8
0
370
    -3
100
AcDbLine
 10
-36.97734484487773
 20
-12.59008893593273
 30
0.0
 11
-35.8202585648778
 21
-13.74717521593266
 31
0.0
  0
LINE
  5
17F
330
21
100
AcDbEntity
  8
0
370
    -3
100
AcDbLine
 10
-25.50000000000182
 20
-12.59008893593273
 30
0.0
 11
-36.97734484487773
 21
-12.59008893593273
 31
0.0
  0
LINE
  5
180
330
21
100
AcDbEntity
  8
0
370
    -3
100
AcDbLine
 10
-26.15772094000204
 20
-13.74717521593266
 30
0.0
 11
-26.15772094000204
 21
-13.49008893593236
 31
0.0
  0
LINE
  5
181
330
21
100
AcDbEntity
  8
0
370
    -3
100
AcDbLine
 10
-26.15772094000204
 20
-13.49008893593236
 30
0.0
 11
-27.35772094000276
 21
-13.49008893593236
 31
0.0
  0
LINE
  5
182
330
21
100
AcDbEntity
  8
0
370
    -3
100
AcDbLine
 10
-27.34772094000255
 20
-13.58851608071564
 30
0.0
 11
-27.34772094000255
 21
-13.49008893593236
 31
0.0
  0
LINE
  5
183
330
21
100
AcDbEntity
  8
0
370
    -3
100
AcDbLine
 10
-27.34772094000255
 20
-13.74717521593266
 30
0.0
 11
-27.34772094000255
 21
-13.58851608071382
 31
0.0
  0
LINE
  5
184
330
21
100
AcDbEntity
  8
0
370
    -3
100
AcDbLine
 10
-26.16772094000225
 20
-13.74717521593266
 30
0.0
 11
-26.16772094000225
 21
-13.58851608071382
 31
0.0
  0
LINE
  5
185
330
21
100
AcDbEntity
  8
0
370
    -3
100
AcDbLine
 10
-26.16772094000225
 20
-13.58851608071564
 30
0.0
 11
-26.16772094000225
 21
-13.49008893593236
 31
0.0
  0
LINE
  5
186
330
21
100
AcDbEntity
  8
0
370
    -3
100
AcDbLine
 10
-27.34772094000255
 20
-13.58851608071382
 30
0.0
 11
-26.16772094000225
 21
-13.58851608071382
 31
0.0
  0
LINE
  5
187
330
21
100
AcDbEntity
  8
0
370
    -3
100
AcDbLine
 10
-37.10245043546092
 20
-12.29008893593164
 30
0.0
 11
-25.50000000000182
 21
-12.29008893593164
 31
0.0
  0
LINE
  5
188
330
21
100
AcDbEntity
  8
0
370
    -3
100
AcDbLine
 10
-36.98809703512234
 20
-12.57067082162575
 30
0.0
 11
-36.98809703512234
 21
-12.49979037382764
 31
0.0
  0
LINE
  5
189
330
21
100
AcDbEntity
  8
0
370
    -3
100
AcDbLine
 10
-37.10772094000276
 20
-33.83008893593251
 30
0.0
 11
-30.29145752800287
 21
-33.83008893593251
 31
0.0
  0
LINE
  5
18A
330
21
100
AcDbEntity
  8
0
370
    -3
100
AcDbLine
 10
-26.04507014666888
 20
-33.83008893593251
 30
0.0
 11
-25.50000000000182
 21
-33.83008893593251
 31
0.0
  0
LINE
  5
18B
330
21
100
AcDbEntity
  8
0
370
    -3
100
AcDbLine
 10
-25.50000000000182
 20
-34.13008893593178
 30
0.0
 11
-27.14507014666924
 21
-34.13008893593178
 31
0.0
  0
LINE
  5
18C
330
21
100
AcDbEntity
  8
0
370
    -3
100
AcDbLine
 10
-30.00236661891176
 20
-34.13008893593178
 30
0.0
 11
-37.10772094000276
 21
-34.13008893593178
 31
0.0
  0
LINE
  5
18D
330
21
100
AcDbEntity
  8
0
370
    -3
100
AcDbLine
 10
-37.10245043546092
 20
-12.49008893593236
 30
0.0
 11
-37.10245043546092
 21
-12.30423322577917
 31
0.0
  0
LINE
  5
18E
330
21
100
AcDbEntity
  8
0
370
    -3
100
AcDbLine
 10
-37.10245043546092
 20
-12.30423322577917
 30
0.0
 11
-37.10245043546092
 21
-12.29008893593164
 31
0.0
  0
LINE
  5
18F
330
21
100
AcDbEntity
  8
0
370
    -3
100
AcDbLine
 10
-37.20772094000131
 20
-12.59535944046729
 30
0.0
 11
-37.39357661144277
 21
-12.59535944046729
 31
0.0
  0
LINE
  5
190
330
21
100
AcDbEntity
  8
0
370
    -3
100
AcDbLine
 10
-37.39357661144277
 20
-12.59535944046729
 30
0.0
 11
-37.40772094000204
 21
-12.59535944046729
 31
0.0
  0
LINE
  5
191
330
21
100
AcDbEntity
  8
0
370
    -3
100
AcDbLine
 10
-37.10245043546092
 20
-12.29008893593164
 30
0.0
 11
-37.10772094000276
 21
-12.29008893593164
 31
0.0
  0
LINE
  5
192
330
21
100
AcDbEntity
  8
0
370
    -3
100
AcDbLine
 10
-37.10772094000276
 20
-12.49008893593236
 30
0.0
 11
-37.10245043546092
 21
-12.49008893593236
 31
0.0
  0
LINE
  5
193
330
21
100
AcDbEntity
  8
0
370
    -3
100
AcDbLine
 10
-37.10772094000276
 20
-12.49008893593236
 30
0.0
 11
-37.10772094000276
 21
-12.29008893593164
 31
0.0
  0
LINE
  5
194
330
21
100
AcDbEntity
  8
0
370
    -3
100
AcDbLine
 10
-37.20772094000131
 20
-12.59535944046729
 30
0.0
 11
-37.20772094000131
 21
-12.59008893593273
 31
0.0
  0
LINE
  5
195
330
21
100
AcDbEntity
  8
0
370
    -3
100
AcDbLine
 10
-37.40772094000204
 20
-12.59008893593273
 30
0.0
 11
-37.40772094000204
 21
-12.59535944046729
 31
0.0
  0
LINE
  5
196
330
21
100
AcDbEntity
  8
0
370
    -3
100
AcDbLine
 10
-37.20772094000131
 20
-12.59008893593273
 30
0.0
 11
-37.40772094000204
 21
-12.59008893593273
 31
0.0
  0
LINE
  5
197
330
21
100
AcDbEntity
  8
0
370
    -3
100
AcDbLine
 10
-37.40772094000204
 20
-33.83008893593251
 30
0.0
 11
-37.40772094000204
 21
-29.24717521593266
 31
0.0
  0
LINE
  5
198
330
21
100
AcDbEntity
  8
0
370
    -3
100
AcDbLine
 10
-37.20772094000131
 20
-33.83008893593251
 30
0.0
 11
-37.20772094000131
 21
-29.24717521593266
 31
0.0
  0
ARC
  5
199
330
21
100
AcDbEntity
  8
0
370
    -3
100
AcDbCircle
 10
-37.10772094000276
 20
-33.83008893593251
 30
-0.0000000000000051
 40
0.1
100
AcDbArc
 50
180.0
 51
270.0
  0
ARC
  5
19A
330
21
100
AcDbEntity
  8
0
370
    -3
100
AcDbCircle
 10
-37.10772094000276
 20
-33.83008893593251
 30
-0.0000000000000051
 40
0.3
100
AcDbArc
 50
180.0
 51
270.0
  0
SPLINE
  5
19B
330
21
100
AcDbEntity
  8
0
370
    -3
100
AcDbSpline
210
0.0
220
0.0
230
1.0
 70
     8
 71
     3
 72
     9
 73
     5
 74
     0
 42
0.000000001
 43
0.00000001
 40
0.0
 40
0.0
 40
0.0
 40
0.0
 40
0.5000742074558538
 40
1.0
 40
1.0
 40
1.0
 40
1.0
 10
-20.80470180984776
 20
33.75000922958861
 30
-0.0000000000000018
 10
-20.83249711513417
 20
33.87351301379022
 30
-0.0000000000000018
 10
-20.88807947646092
 20
34.12048392802899
 30
-0.0000000000000017
 10
-20.89602688532977
 20
34.37350716015317
 30
-0.0000000000000015
 10
-20.90000000000691
 20
34.50000000000546
 30
-0.0000000000000015
  0
LINE
  5
19C
330
21
100
AcDbEntity
  8
0
370
    -3
100
AcDbLine
 10
-20.76758837214766
 20
33.61855974226819
 30
-0.0000000000000019
 11
-20.80473751254249
 21
33.75000001116496
 31
-0.0000000000000018
  0
SPLINE
  5
19D
330
21
100
AcDbEntity
  8
0
370
    -3
100
AcDbSpline
210
0.0
220
0.0
230
1.0
 70
     8
 71
     3
 72
    28
 73
    24
 74
     0
 42
0.000000001
 43
0.00000001
 40
0.0
 40
0.0
 40
0.0
 40
0.0
 40
0.0000020605840367
 40
0.042331427273374
 40
0.0844564545915747
 40
0.1268372735224221
 40
0.1880050649225675
 40
0.2490774920039547
 40
0.3123578171146196
 40
0.3753409636014886
 40
0.4170603105887428
 40
0.4584557038149734
 40
0.4999993139647459
 40
0.5415099226285142
 40
0.582905424382632
 40
0.6246589215518793
 40
0.6876355846509676
 40
0.750922368676383
 40
0.8119885520312441
 40
0.8731624390692413
 40
0.9155423317316838
 40
0.957668094980856
 40
1.0
 40
1.0
 40
1.0
 40
1.0
 10
-15.03246069178022
 20
33.61857429341217
 30
-0.0000000000000014
 10
-15.03246223139467
 20
33.618569283939
 30
-0.0000000000000014
 10
-15.06409118028932
 20
33.51565762467908
 30
-0.0000000000000014
 10
-15.13806144857335
 20
33.31348278048608
 30
-0.0000000000000015
 10
-15.28137451178372
 20
33.02377965113374
 30
-0.0000000000000017
 10
-15.48111318589872
 20
32.71096604395643
 30
-0.0000000000000018
 10
-15.75116774496564
 20
32.38866661380234
 30
-0.000000000000002
 10
-16.10884826318579
 20
32.078092267182
 30
-0.0000000000000022
 10
-16.51430802188588
 20
31.82396261046051
 30
-0.0000000000000023
 10
-16.91037751222757
 20
31.65861953372587
 30
-0.0000000000000024
 10
-17.2695597152815
 20
31.56111189724652
 30
-0.0000000000000025
 10
-17.58325133489052
 20
31.51099237546987
 30
-0.0000000000000025
 10
-17.89991377831211
 20
31.49451537629648
 30
-0.0000000000000026
 10
-18.21658324129749
 20
31.51091143096164
 30
-0.0000000000000026
 10
-18.53027560506234
 20
31.56105720012602
 30
-0.0000000000000026
 10
-18.88952473591598
 20
31.65858720949291
 30
-0.0000000000000026
 10
-19.28567416658188
 20
31.82395391919272
 30
-0.0000000000000025
 10
-19.69113873454626
 20
32.07806979167981
 30
-0.0000000000000025
 10
-20.04877354410564
 20
32.3886679460029
 30
-0.0000000000000023
 10
-20.31902941389126
 20
32.71090678361543
 30
-0.0000000000000022
 10
-20.51824424665756
 20
33.02388370529479
 30
-0.0000000000000021
 10
-20.66339333476571
 20
33.31306224892614
 30
-0.000000000000002
 10
-20.73276754157632
 20
33.51657137224174
 30
-0.0000000000000019
 10
-20.76753930823179
 20
33.61857429341217
 30
-0.0000000000000019
  0
LINE
  5
19E
330
21
100
AcDbEntity
  8
0
370
    -3
100
AcDbLine
 10
-14.99526248746952
 20
33.75000001116496
 30
-0.0000000000000013
 11
-15.03241162786435
 21
33.61855974226819
 31
-0.0000000000000014
  0
SPLINE
  5
19F
330
21
100
AcDbEntity
  8
0
370
    -3
100
AcDbSpline
210
0.0
220
0.0
230
1.0
 70
     8
 71
     3
 72
     9
 73
     5
 74
     0
 42
0.000000001
 43
0.00000001
 40
0.0
 40
0.0
 40
0.0
 40
0.0
 40
0.499925792544146
 40
1.0
 40
1.0
 40
1.0
 40
1.0
 10
-14.90000000000691
 20
34.50000000000546
 30
-0.000000000000001
 10
-14.90397311468405
 20
34.37350716015317
 30
-0.000000000000001
 10
-14.91192052355291
 20
34.12048392802899
 30
-0.0000000000000012
 10
-14.96750288487783
 20
33.87351301379022
 30
-0.0000000000000013
 10
-14.99529819016607
 20
33.75000922958861
 30
-0.0000000000000013
  0
SPLINE
  5
1A0
330
21
100
AcDbEntity
  8
0
370
    -3
100
AcDbSpline
210
0.0
220
0.0
230
1.0
 70
     8
 71
     3
 72
     9
 73
     5
 74
     0
 42
0.000000001
 43
0.00000001
 40
0.0
 40
0.0
 40
0.0
 40
0.0
 40
0.5200497877178797
 40
1.0
 40
1.0
 40
1.0
 40
1.0
 10
-10.58414712560807
 20
36.64648444243903
 30
0.0000000000000003
 10
-10.81200273731702
 20
36.75549137309463
 30
0.0000000000000003
 10
-11.25014465582171
 20
36.96510001678507
 30
0.0000000000000004
 10
-11.6900563743875
 20
37.17096787542323
 30
0.0000000000000005
 10
-11.90119209709701
 20
37.26977419787909
 30
0.0000000000000005
  0
SPLINE
  5
1A1
330
21
100
AcDbEntity
  8
0
370
    -3
100
AcDbSpline
210
0.0
220
0.0
230
1.0
 70
     8
 71
     3
 72
    31
 73
    27
 74
     0
 42
0.000000001
 43
0.00000001
 40
0.0
 40
0.0
 40
0.0
 40
0.0
 40
0.0040997251144902
 40
0.0082823328417256
 40
0.0125940982848678
 40
0.0193922813266608
 40
0.0266986150967928
 40
0.0391351171966079
 40
0.0534532689294009
 40
0.1287814185736139
 40
0.2092756321335228
 40
0.284281607829013
 40
0.3093618527860178
 40
0.3363970238324432
 40
0.3653851705048876
 40
0.3963239344119492
 40
0.4292105278072854
 40
0.4640417068574266
 40
0.5008137411341288
 40
0.5468286077031833
 40
0.61267491592594
 40
0.6982741993671662
 40
0.7940784003518383
 40
0.8756156994607516
 40
0.9442360118152708
 40
1.0
 40
1.0
 40
1.0
 40
1.0
 10
-5.500000000003638
 20
33.74999999999818
 30
-0.0000000000000005
 10
-5.50026193589656
 20
33.75808550584043
 30
-0.0000000000000005
 10
-5.500791103142546
 20
33.77441997917595
 30
-0.0000000000000005
 10
-5.505014899854359
 20
33.79895868559106
 30
-0.0000000000000005
 10
-5.512931353190652
 20
33.82808152717371
 30
-0.0000000000000005
 10
-5.526718947223344
 20
33.8618042730759
 30
-0.0000000000000005
 10
-5.552508020537061
 20
33.9074474555091
 30
-0.0000000000000005
 10
-5.59316045021842
 20
33.96118370805198
 30
-0.0000000000000005
 10
-5.733000530273785
 20
34.10635087062656
 30
-0.0000000000000004
 10
-6.013032143131568
 20
34.29633127067973
 30
-0.0000000000000003
 10
-6.403144149917352
 20
34.52884205693226
 30
-0.0000000000000003
 10
-6.715386490419405
 20
34.70033516193325
 30
-0.0000000000000002
 10
-6.936054789388436
 20
34.81904386269525
 30
-0.0000000000000002
 10
-7.077185315807583
 20
34.8941736552697
 30
-0.0000000000000002
 10
-7.228807162764497
 20
34.97415928843111
 30
-0.0000000000000001
 10
-7.390930510317048
 20
35.05896029324504
 30
-0.0000000000000001
 10
-7.563551816412655
 20
35.14853925381249
 30
-0.0000000000000001
 10
-7.74667513312852
 20
35.24284343140425
 30
-0.0000000000000001
 10
-7.953111038992574
 20
35.3484024956324
 30
0.0
 10
-8.21446605109486
 20
35.48084755267155
 30
0.0
 10
-8.562200164602473
 20
35.65576804308512
 30
0.0
 10
-8.998361713898703
 20
35.87330474291412
 30
0.0000000000000001
 10
-9.463186222463264
 20
36.10266554851296
 30
0.0000000000000002
 10
-9.898806928949853
 20
36.31556160044602
 30
0.0000000000000002
 10
-10.26408680313398
 20
36.49262121361608
 30
0.0000000000000003
 10
-10.48507407769102
 20
36.59885686110101
 30
0.0000000000000003
 10
-10.58414712560807
 20
36.64648444243903
 30
0.0000000000000003
  0
SPLINE
  5
1A2
330
21
100
AcDbEntity
  8
0
370
    -3
100
AcDbSpline
210
0.0
220
0.0
230
1.0
 70
     8
 71
     3
 72
    11
 73
     7
 74
     0
 42
0.000000001
 43
0.00000001
 40
0.0
 40
0.0
 40
0.0
 40
0.0
 40
0.2387503223546771
 40
0.4806948410645315
 40
0.7315110657519167
 40
1.0
 40
1.0
 40
1.0
 40
1.0
 10
-5.538042658028644
 20
33.61854312180003
 30
-0.0000000000000006
 10
-5.53285256241179
 20
33.62826211141146
 30
-0.0000000000000006
 10
-5.522402933846024
 20
33.64783011919462
 30
-0.0000000000000006
 10
-5.510458328950335
 20
33.67944573099703
 30
-0.0000000000000006
 10
-5.501752921532898
 20
33.71363411176571
 30
-0.0000000000000006
 10
-5.500597415035372
 20
33.73760610334648
 30
-0.0000000000000005
 10
-5.500000000003638
 20
33.74999999999818
 30
-0.0000000000000005
  0
SPLINE
  5
1A3
330
21
100
AcDbEntity
  8
0
370
    -3
100
AcDbSpline
210
0.0
220
0.0
230
1.0
 70
     8
 71
     3
 72
    38
 73
    34
 74
     0
 42
0.000000001
 43
0.00000001
 40
0.0
 40
0.0
 40
0.0
 40
0.0
 40
0.0381757054975134
 40
0.0823116590805185
 40
0.1324264682218628
 40
0.1885396586265898
 40
0.2506710363133384
 40
0.3354013639161006
 40
0.404681810764505
 40
0.4243292493169333
 40
0.4422500850401858
 40
0.4584425523462821
 40
0.4729051129119056
 40
0.4856364388899394
 40
0.4966353978948594
 40
0.5509812668341331
 40
0.6010565058758933
 40
0.6468498816341831
 40
0.6883523163345159
 40
0.7255566942221353
 40
0.7584577231579669
 40
0.7948970097997838
 40
0.8278385773157967
 40
0.8572843792388597
 40
0.8832392763516789
 40
0.9063137822350789
 40
0.9268325993844045
 40
0.9448181394452557
 40
0.9583369197023678
 40
0.9705640984444216
 40
0.981541249267737
 40
0.9913260220279834
 40
1.0
 40
1.0
 40
1.0
 40
1.0
 10
-10.5841471218082
 20
30.8535155513091
 30
-0.0000000000000022
 10
-10.51789510915842
 20
30.88534947823609
 30
-0.0000000000000022
 10
-10.37504737373274
 20
30.95398745902457
 30
-0.0000000000000022
 10
-10.14545194574202
 20
31.06488053213434
 30
-0.0000000000000021
 10
-9.885001170570831
 20
31.1912980466459
 30
-0.000000000000002
 10
-9.59371390450724
 20
31.33353142717533
 30
-0.0000000000000019
 10
-9.242955324283685
 20
31.50586375532839
 30
-0.0000000000000018
 10
-8.870038346000001
 20
31.6905846108948
 30
-0.0000000000000017
 10
-8.570935307649052
 20
31.8400321730187
 30
-0.0000000000000016
 10
-8.387084125119145
 20
31.9323460382675
 30
-0.0000000000000016
 10
-8.294620473727264
 20
31.97887465363601
 30
-0.0000000000000015
 10
-8.211109577601746
 20
32.02098581809514
 30
-0.0000000000000015
 10
-8.136551777137356
 20
32.05866025566866
 30
-0.0000000000000015
 10
-8.070946089679637
 20
32.09187883894629
 30
-0.0000000000000015
 10
-7.936896885710667
 20
32.15991637390289
 30
-0.0000000000000014
 10
-7.738983817689586
 20
32.26099293852349
 30
-0.0000000000000014
 10
-7.481948450091295
 20
32.3935924031357
 30
-0.0000000000000013
 10
-7.247430381281447
 20
32.51589722539393
 30
-0.0000000000000012
 10
-7.035425916119493
 20
32.62777375457881
 30
-0.0000000000000012
 10
-6.845934244960517
 20
32.72911838598884
 30
-0.0000000000000011
 10
-6.665680250653168
 20
32.82705613181497
 30
-0.000000000000001
 10
-6.493510608679571
 20
32.92266867142098
 30
-0.000000000000001
 10
-6.328275517220391
 20
33.01704012955452
 30
-0.0000000000000009
 10
-6.181812752738551
 20
33.10354429884501
 30
-0.0000000000000009
 10
-6.053122062348848
 20
33.18273897455401
 30
-0.0000000000000008
 10
-5.940771535550084
 20
33.25562921588607
 30
-0.0000000000000008
 10
-5.84324446566643
 20
33.32308546514287
 30
-0.0000000000000008
 10
-5.763018785826716
 20
33.38311882543894
 30
-0.0000000000000007
 10
-5.698044159726123
 20
33.43671291984901
 30
-0.0000000000000007
 10
-5.645844625631071
 20
33.48448336844012
 30
-0.0000000000000007
 10
-5.601941118926334
 20
33.53041072790802
 30
-0.0000000000000006
 10
-5.565626368252197
 20
33.5741162757804
 30
-0.0000000000000006
 10
-5.546860808884958
 20
33.6043404545253
 30
-0.0000000000000006
 10
-5.538042658028644
 20
33.61854314161246
 30
-0.0000000000000006
  0
SPLINE
  5
1A4
330
21
100
AcDbEntity
  8
0
370
    -3
100
AcDbSpline
210
0.0
220
0.0
230
1.0
 70
     8
 71
     3
 72
     9
 73
     5
 74
     0
 42
0.000000001
 43
0.00000001
 40
0.0
 40
0.0
 40
0.0
 40
0.0
 40
0.4750853403346065
 40
1.0
 40
1.0
 40
1.0
 40
1.0
 10
-12.39810109238897
 20
29.99999999999818
 30
-0.0000000000000028
 10
-12.11000769594102
 20
30.13339420412194
 30
-0.0000000000000027
 10
-11.50360423115308
 20
30.41417366162204
 30
-0.0000000000000025
 10
-10.9006477945295
 20
30.70228282688004
 30
-0.0000000000000023
 10
-10.5841471218082
 20
30.8535155513091
 30
-0.0000000000000022
  0
SPLINE
  5
1A5
330
21
100
AcDbEntity
  8
0
370
    -3
100
AcDbSpline
210
0.0
220
0.0
230
1.0
 70
     8
 71
     3
 72
     9
 73
     5
 74
     0
 42
0.000000001
 43
0.00000001
 40
0.0
 40
0.0
 40
0.0
 40
0.0
 40
0.524914659662433
 40
1.0
 40
1.0
 40
1.0
 40
1.0
 10
-10.58414712180638
 20
6.64648444868908
 30
0.000000000000001
 10
-10.90064779452769
 20
6.797717173116325
 30
0.000000000000001
 10
-11.50360423114944
 20
7.085826338374318
 30
0.0000000000000011
 10
-12.11000769593738
 20
7.366605795872601
 30
0.0000000000000012
 10
-12.39810109238533
 20
7.499999999998181
 30
0.0000000000000012
  0
SPLINE
  5
1A6
330
21
100
AcDbEntity
  8
0
370
    -3
100
AcDbSpline
210
0.0
220
0.0
230
1.0
 70
     8
 71
     3
 72
    31
 73
    27
 74
     0
 42
0.000000001
 43
0.00000001
 40
0.0
 40
0.0
 40
0.0
 40
0.0
 40
0.0040997251131429
 40
0.0082823328401026
 40
0.0125940982840428
 40
0.0193922813289798
 40
0.0266986151044148
 40
0.0391351171968533
 40
0.0534532689452267
 40
0.128781418591418
 40
0.2092756321711908
 40
0.2842816069678872
 40
0.3093618516800774
 40
0.3363970226116078
 40
0.3653851692989569
 40
0.3963239333505616
 40
0.4292105270198842
 40
0.4640417064732073
 40
0.5008137412819891
 40
0.5468286070062641
 40
0.6126749150774904
 40
0.6982741990582921
 40
0.7940861177497578
 40
0.8756311033311612
 40
0.944248825225115
 40
1.0
 40
1.0
 40
1.0
 40
1.0
 10
-5.500000000003638
 20
3.749999999998181
 30
0.0000000000000001
 10
-5.50026193589656
 20
3.75808550583497
 30
0.0000000000000001
 10
-5.500791103142546
 20
3.774419979163213
 30
0.0000000000000002
 10
-5.505014899856178
 20
3.79895868557287
 30
0.0000000000000002
 10
-5.51293135319429
 20
3.828081527153699
 30
0.0000000000000002
 10
-5.52671894723062
 20
3.86180427306499
 30
0.0000000000000002
 10
-5.552508020526147
 20
3.907447455498186
 30
0.0000000000000002
 10
-5.593160450214782
 20
3.961183708048338
 30
0.0000000000000002
 10
-5.733000530253776
 20
4.106350870604729
 30
0.0000000000000003
 10
-6.013032143113378
 20
4.296331270652445
 30
0.0000000000000003
 10
-6.40314414833847
 20
4.528842055950008
 30
0.0000000000000004
 10
-6.715386486772331
 20
4.70033515994146
 30
0.0000000000000005
 10
-6.936054783516738
 20
4.819043859481098
 30
0.0000000000000005
 10
-7.077185309306515
 20
4.894173651715391
 30
0.0000000000000005
 10
-7.228807156305265
 20
4.974159284902271
 30
0.0000000000000005
 10
-7.390930504570861
 20
5.058960290110917
 30
0.0000000000000006
 10
-7.5635518120489
 20
5.148539251435068
 30
0.0000000000000006
 10
-7.746675130820222
 20
5.242843430138237
 30
0.0000000000000006
 10
-7.953111036751579
 20
5.348402494513721
 30
0.0000000000000006
 10
-8.214466047975293
 20
5.480847551114493
 30
0.0000000000000007
 10
-8.562200160464272
 20
5.655768041364354
 30
0.0000000000000007
 10
-8.998375325496454
 20
5.873311530251158
 30
0.0000000000000008
 10
-9.46322710521963
 20
6.102685694899264
 30
0.0000000000000008
 10
-9.898870633673141
 20
6.315592577302596
 30
0.0000000000000009
 10
-10.26413697723547
 20
6.492645225551314
 30
0.000000000000001
 10
-10.48509685296813
 20
6.598867781942317
 30
0.000000000000001
 10
-10.58414712180638
 20
6.64648444868908
 30
0.000000000000001
  0
SPLINE
  5
1A7
330
21
100
AcDbEntity
  8
0
370
    -3
100
AcDbSpline
210
0.0
220
0.0
230
1.0
 70
     8
 71
     3
 72
    37
 73
    33
 74
     0
 42
0.000000001
 43
0.00000001
 40
0.0
 40
0.0
 40
0.0
 40
0.0
 40
0.0545046754975178
 40
0.1213642431807855
 40
0.2006357445130282
 40
0.2939965679840103
 40
0.3347736214053076
 40
0.3717405858832893
 40
0.4048878412462368
 40
0.4342073024849256
 40
0.4596922510099823
 40
0.4813371813231443
 40
0.4991376655297325
 40
0.5540852676878545
 40
0.6045752809374062
 40
0.6505960345359412
 40
0.6921382585729645
 40
0.7291948845032938
 40
0.7617609264503127
 40
0.798669950665613
 40
0.8317105937453966
 40
0.8608892344069025
 40
0.8862176309460377
 40
0.9197697308291976
 40
0.9465516888993967
 40
0.9608613521822653
 40
0.973303718033391
 40
0.9806076346248602
 40
0.9874045510230455
 40
0.9917161749508582
 40
0.9958992308653096
 40
1.0
 40
1.0
 40
1.0
 40
1.0
 10
-10.58414712180638
 20
0.8535155513072823
 30
-0.0000000000000016
 10
-10.48730137740495
 20
0.9000708344337909
 30
-0.0000000000000015
 10
-10.27165729976696
 20
1.003734357811481
 30
-0.0000000000000015
 10
-9.915701933450691
 20
1.176230157934697
 30
-0.0000000000000014
 10
-9.491461824964063
 20
1.383470710661641
 30
-0.0000000000000012
 10
-9.114107110652185
 20
1.56953326000621
 30
-0.0000000000000011
 10
-8.812029963160967
 20
1.719667276940527
 30
-0.000000000000001
 10
-8.616429949825033
 20
1.817314999803784
 30
-0.000000000000001
 10
-8.441180521997012
 20
1.905154617501466
 30
-0.0000000000000009
 10
-8.286281527773099
 20
1.983077374803543
 30
-0.0000000000000009
 10
-8.151733948910987
 20
2.05099533315115
 30
-0.0000000000000008
 10
-8.03753533514464
 20
2.108830234536072
 30
-0.0000000000000008
 10
-7.871646347794012
 20
2.193160627577527
 30
-0.0000000000000007
 10
-7.655402323727685
 20
2.303925740174236
 30
-0.0000000000000007
 10
-7.390252382660037
 20
2.441242398390386
 30
-0.0000000000000006
 10
-7.149193391436711
 20
2.567601452485178
 30
-0.0000000000000005
 10
-6.9322188045644
 20
2.682855582157572
 30
-0.0000000000000004
 10
-6.739330418127793
 20
2.786900718496327
 30
-0.0000000000000004
 10
-6.555245912953978
 20
2.888015497092056
 30
-0.0000000000000003
 10
-6.379221714354571
 20
2.987341094893054
 30
-0.0000000000000003
 10
-6.21055518468529
 20
3.086072983927806
 30
-0.0000000000000002
 10
-6.063329063117635
 20
3.176179442851208
 30
-0.0000000000000002
 10
-5.917564837656755
 20
3.270523150620647
 30
-0.0000000000000001
 10
-5.779756982756226
 20
3.368270805340217
 30
-0.0000000000000001
 10
-5.66632721347014
 20
3.462514032436957
 30
0.0
 10
-5.593201252027939
 20
3.53883261557894
 30
0.0
 10
-5.552515202467475
 20
3.592535454265089
 30
0.0000000000000001
 10
-5.526717989600002
 20
3.638186281603339
 30
0.0000000000000001
 10
-5.512930507156852
 20
3.671904595459637
 30
0.0000000000000001
 10
-5.505014513317292
 20
3.701028741708797
 30
0.0000000000000001
 10
-5.500790935931946
 20
3.725572631246905
 30
0.0000000000000001
 10
-5.500261893577772
 20
3.741911644552602
 30
0.0000000000000001
 10
-5.500000000003638
 20
3.749999999998181
 30
0.0000000000000001
  0
SPLINE
  5
1A8
330
21
100
AcDbEntity
  8
0
370
    -3
100
AcDbSpline
210
0.0
220
0.0
230
1.0
 70
     8
 71
     3
 72
     9
 73
     5
 74
     0
 42
0.000000001
 43
0.00000001
 40
0.0
 40
0.0
 40
0.0
 40
0.0
 40
0.4750853403221397
 40
1.0
 40
1.0
 40
1.0
 40
1.0
 10
-12.39810109238897
 20
-0.000000000001819
 30
-0.0000000000000021
 10
-12.1100076959483
 20
0.1333942041201226
 30
-0.000000000000002
 10
-11.50360423116035
 20
0.4141736616184062
 30
-0.0000000000000018
 10
-10.90064779453678
 20
0.7022828268763988
 30
-0.0000000000000016
 10
-10.58414712180638
 20
0.8535155513072823
 30
-0.0000000000000016
  0
SPLINE
  5
1A9
330
21
100
AcDbEntity
  8
0
370
    -3
100
AcDbSpline
210
0.0
220
0.0
230
1.0
 70
     8
 71
     3
 72
    18
 73
    14
 74
     0
 42
0.000000001
 43
0.00000001
 40
0.0
 40
0.0
 40
0.0
 40
0.0
 40
0.1270461314075893
 40
0.2479026413992652
 40
0.376742837430898
 40
0.4979710061901521
 40
0.5855865332381166
 40
0.6692618880464195
 40
0.749932233117596
 40
0.8140962195121465
 40
0.8767576655094078
 40
0.9385183724294667
 40
1.0
 40
1.0
 40
1.0
 40
1.0
 10
-12.39810109238533
 20
22.49999999999818
 30
0.0000000000000078
 10
-12.59410625661985
 20
22.59490299775462
 30
0.0000000000000078
 10
-12.97656731547249
 20
22.7800853685967
 30
-0.000000000000006
 10
-13.52867257813341
 20
23.11637176055592
 30
-0.0000000000000059
 10
-14.04107892127649
 20
23.49406276114678
 30
-0.0000000000000058
 10
-14.46513230951678
 20
23.88990402561467
 30
-0.0000000000000056
 10
-14.79136525895228
 20
24.2714319725892
 30
-0.0000000000000055
 10
-15.03596350042426
 20
24.62822514386244
 30
-0.0000000000000053
 10
-15.21905927164516
 20
24.97532177001085
 30
-0.0000000000000052
 10
-15.34971708760349
 20
25.30663787466983
 30
-0.0000000000000051
 10
-15.435997882214
 20
25.61849120792067
 30
-0.0000000000000049
 10
-15.49002999286677
 20
25.93335307656162
 30
-0.0000000000000048
 10
-15.49668168515745
 20
26.14461048798876
 30
-0.0000000000000047
 10
-15.50000000000182
 20
26.24999999999818
 30
-0.0000000000000047
  0
SPLINE
  5
1AA
330
21
100
AcDbEntity
  8
0
370
    -3
100
AcDbSpline
210
0.0
220
0.0
230
1.0
 70
     8
 71
     3
 72
    18
 73
    14
 74
     0
 42
0.000000001
 43
0.00000001
 40
0.0
 40
0.0
 40
0.0
 40
0.0
 40
0.0614783315467418
 40
0.1232379719442283
 40
0.1859005045882316
 40
0.2500675649512396
 40
0.3307298822573652
 40
0.4144053176319637
 40
0.5020288686795042
 40
0.6232478670986671
 40
0.7520972846685683
 40
0.8729484549616603
 40
1.0
 40
1.0
 40
1.0
 40
1.0
 10
-15.50000000000182
 20
26.24999999999818
 30
-0.0000000000000047
 10
-15.49668154333631
 20
26.35538383320636
 30
-0.0000000000000046
 10
-15.49002944561107
 20
26.56663370862771
 30
-0.0000000000000045
 10
-15.43599673906283
 20
26.88148973495845
 30
-0.0000000000000044
 10
-15.34971500281608
 20
27.19334800176148
 30
-0.0000000000000042
 10
-15.21906811446206
 20
27.52466111067406
 30
-0.0000000000000041
 10
-15.03598123692609
 20
27.8717532968767
 30
-0.0000000000000039
 10
-14.79137970486045
 20
28.22854420093427
 30
-0.0000000000000037
 10
-14.46515375415947
 20
28.610075494782
 30
-0.0000000000000035
 10
-14.04109117470216
 20
29.00592722150577
 30
-0.0000000000000033
 10
-13.52869309272319
 20
29.38361393413834
 30
-0.0000000000000031
 10
-12.97657683887519
 20
29.71991268696547
 30
-0.0000000000000029
 10
-12.59411496695066
 20
29.90509368840867
 30
-0.0000000000000028
 10
-12.39810109238897
 20
29.99999999999818
 30
-0.0000000000000028
  0
SPLINE
  5
1AB
330
21
100
AcDbEntity
  8
0
370
    -3
100
AcDbSpline
210
0.0
220
0.0
230
1.0
 70
     8
 71
     3
 72
    31
 73
    27
 74
     0
 42
0.000000001
 43
0.00000001
 40
0.0
 40
0.0
 40
0.0
 40
0.0
 40
0.0040997251136125
 40
0.0082823328408463
 40
0.0125940982848665
 40
0.0193922813295874
 40
0.0266986151044379
 40
0.0391351172031879
 40
0.0534532689453359
 40
0.1287814186332255
 40
0.2092756322213558
 40
0.2842816075684904
 40
0.3093618524408301
 40
0.3363970234503704
 40
0.3653851701336652
 40
0.3963239340992483
 40
0.4292105276007038
 40
0.4640417068044707
 40
0.500813741282191
 40
0.5468286087695375
 40
0.6126749171908444
 40
0.6982742001132148
 40
0.7940861176178318
 40
0.8756311030677104
 40
0.9442488250059492
 40
1.0
 40
1.0
 40
1.0
 40
1.0
 10
-5.500000000003638
 20
18.74999999999818
 30
0.0000000000000067
 10
-5.50026193589656
 20
18.75808550583497
 30
0.0000000000000067
 10
-5.500791103142546
 20
18.77441997916685
 30
0.0000000000000068
 10
-5.505014899856178
 20
18.79895868557651
 30
0.0000000000000068
 10
-5.51293135319429
 20
18.82808152715734
 30
0.0000000000000068
 10
-5.526718947228801
 20
18.86180427306681
 30
0.0000000000000068
 10
-5.552508020533423
 20
18.9074474555091
 30
0.0000000000000068
 10
-5.59316045021842
 20
18.96118370806107
 30
0.0000000000000068
 10
-5.733000530328354
 20
19.10635087066476
 30
0.0000000000000069
 10
-6.013032143266173
 20
19.29633127074885
 30
0.0000000000000069
 10
-6.403144149495347
 20
19.52884205667397
 30
0.000000000000007
 10
-6.715386489217053
 20
19.7003351612675
 30
0.0000000000000071
 10
-6.936054787327521
 20
19.81904386155293
 30
0.0000000000000071
 10
-7.077185313522932
 20
19.8941736540055
 30
0.0000000000000071
 10
-7.228807160501674
 20
19.97415928717965
 30
0.0000000000000071
 10
-7.390930508321617
 20
20.05896029214273
 30
0.0000000000000072
 10
-7.56355181492836
 20
20.14853925299212
 30
0.0000000000000072
 10
-7.746675132400924
 20
20.24284343099498
 30
0.0000000000000072
 10
-7.953111040433214
 20
20.34840249638182
 30
0.0000000000000072
 10
-8.21446605480196
 20
20.48084755454693
 30
0.0000000000000073
 10
-8.562200169157222
 20
20.65576804571356
 30
0.0000000000000073
 10
-8.998375330860654
 20
20.87331153290506
 30
0.0000000000000074
 10
-9.46322710638924
 20
21.10268569546497
 30
0.0000000000000074
 10
-9.898870632585385
 20
21.31559257676781
 30
0.0000000000000075
 10
-10.26413697637872
 20
21.49264522513658
 30
0.0000000000000076
 10
-10.48509685257886
 20
21.59886778175496
 30
0.0000000000000076
 10
-10.58414712180638
 20
21.64648444868908
 30
0.0000000000000076
  0
SPLINE
  5
1AC
330
21
100
AcDbEntity
  8
0
370
    -3
100
AcDbSpline
210
0.0
220
0.0
230
1.0
 70
     8
 71
     3
 72
     9
 73
     5
 74
     0
 42
0.000000001
 43
0.00000001
 40
0.0
 40
0.0
 40
0.0
 40
0.0
 40
0.5249146596526612
 40
1.0
 40
1.0
 40
1.0
 40
1.0
 10
-10.58414712180638
 20
21.64648444868908
 30
0.0000000000000076
 10
-10.90064779452223
 20
21.79771717311269
 30
0.0000000000000076
 10
-11.50360423114398
 20
22.08582633837068
 30
0.0000000000000077
 10
-12.11000769593011
 20
22.36660579587078
 30
0.0000000000000078
 10
-12.39810109238533
 20
22.49999999999818
 30
0.0000000000000078
  0
SPLINE
  5
1AD
330
21
100
AcDbEntity
  8
0
370
    -3
100
AcDbSpline
210
0.0
220
0.0
230
1.0
 70
     8
 71
     3
 72
    18
 73
    14
 74
     0
 42
0.000000001
 43
0.00000001
 40
0.0
 40
0.0
 40
0.0
 40
0.0
 40
0.127046131449107
 40
0.2479026413998911
 40
0.3767428375316028
 40
0.4979710061915398
 40
0.5855865333097043
 40
0.6692618881187691
 40
0.7499322331186452
 40
0.8140962195300717
 40
0.8767576655333079
 40
0.9385183724475306
 40
1.0
 40
1.0
 40
1.0
 40
1.0
 10
-12.39810109238533
 20
7.499999999998181
 30
0.0000000000000012
 10
-12.59410625668716
 20
7.594902997778263
 30
0.0000000000000012
 10
-12.97656731554707
 20
7.780085368609434
 30
0.0000000000000013
 10
-13.52867257832986
 20
8.116371760695984
 30
0.0000000000000014
 10
-14.04107892142201
 20
8.494062761239547
 30
0.0000000000000015
 10
-14.46513230973142
 20
8.889904025812939
 30
0.0000000000000017
 10
-14.79136525905596
 20
9.271431972816572
 30
0.0000000000000018
 10
-15.03596350055341
 20
9.628225144067983
 30
0.0000000000000019
 10
-15.21905927171429
 20
9.975321770147275
 30
0.0000000000000021
 10
-15.34971708759076
 20
10.30663787474805
 30
0.0000000000000022
 10
-15.43599788220672
 20
10.61849120802617
 30
0.0000000000000023
 10
-15.49002999286313
 20
10.93335307663438
 30
0.0000000000000025
 10
-15.49668168515564
 20
11.14461048801968
 30
0.0000000000000026
 10
-15.50000000000182
 20
11.24999999999818
 30
0.0000000000000026
  0
SPLINE
  5
1AE
330
21
100
AcDbEntity
  8
0
370
    -3
100
AcDbSpline
210
0.0
220
0.0
230
1.0
 70
     8
 71
     3
 72
    18
 73
    14
 74
     0
 42
0.000000001
 43
0.00000001
 40
0.0
 40
0.0
 40
0.0
 40
0.0
 40
0.061478331528239
 40
0.1232379719198053
 40
0.1859005045700314
 40
0.2500675649504766
 40
0.3307298821654083
 40
0.4144053175409861
 40
0.5020288686778673
 40
0.6232478668955775
 40
0.7520972846672725
 40
0.8729484548230845
 40
1.0
 40
1.0
 40
1.0
 40
1.0
 10
-15.50000000000182
 20
11.24999999999818
 30
0.0000000000000026
 10
-15.49668154333631
 20
11.35538383317544
 30
0.0000000000000027
 10
-15.49002944560743
 20
11.56663370855313
 30
0.0000000000000028
 10
-15.43599673905555
 20
11.88148973485113
 30
0.0000000000000029
 10
-15.34971500280335
 20
12.19334800168144
 30
0.000000000000003
 10
-15.21906811454392
 20
12.52466111050671
 30
0.0000000000000032
 10
-15.0359812370807
 20
12.87175329660931
 30
0.0000000000000034
 10
-14.7913797049805
 20
13.22854420063413
 30
0.0000000000000035
 10
-14.46515375452691
 20
13.61007549444184
 30
0.0000000000000037
 10
-14.04109117495136
 20
14.00592722126385
 30
0.0000000000000039
 10
-13.5286930932034
 20
14.38361393380728
 30
0.0000000000000042
 10
-12.97657683911893
 20
14.71991268691454
 30
0.0000000000000043
 10
-12.59411496717439
 20
14.90509368832318
 30
0.0000000000000045
 10
-12.39810109238897
 20
14.99999999999818
 30
0.0000000000000045
  0
SPLINE
  5
1AF
330
21
100
AcDbEntity
  8
0
370
    -3
100
AcDbSpline
210
0.0
220
0.0
230
1.0
 70
     8
 71
     3
 72
     9
 73
     5
 74
     0
 42
0.000000001
 43
0.00000001
 40
0.0
 40
0.0
 40
0.0
 40
0.0
 40
0.4750853403208063
 40
1.0
 40
1.0
 40
1.0
 40
1.0
 10
-12.39810109238897
 20
14.99999999999818
 30
0.0000000000000045
 10
-12.1100076959483
 20
15.1333942041183
 30
0.0000000000000046
 10
-11.50360423116217
 20
15.41417366161841
 30
0.0000000000000048
 10
-10.9006477945386
 20
15.7022828268764
 30
0.000000000000005
 10
-10.5841471218082
 20
15.8535155513091
 30
0.000000000000005
  0
SPLINE
  5
1B0
330
21
100
AcDbEntity
  8
0
370
    -3
100
AcDbSpline
210
0.0
220
0.0
230
1.0
 70
     8
 71
     3
 72
    37
 73
    33
 74
     0
 42
0.000000001
 43
0.00000001
 40
0.0
 40
0.0
 40
0.0
 40
0.0
 40
0.054504671171486
 40
0.1213642378840175
 40
0.2006357416181898
 40
0.2939965693796143
 40
0.3347736238568689
 40
0.3717405889737884
 40
0.4048878445575338
 40
0.434207305598042
 40
0.4596922535053463
 40
0.4813371827807923
 40
0.4991376655294817
 40
0.5540852672200478
 40
0.6045752801884924
 40
0.6505960336929016
 40
0.6921382578231616
 40
0.7291948840343373
 40
0.7617609264499388
 40
0.7986699505256586
 40
0.831710593558808
 40
0.8608892342668862
 40
0.8862176309459578
 40
0.9197697308184896
 40
0.9465516888994024
 40
0.9608613521828004
 40
0.9733037180333445
 40
0.9806076346246563
 40
0.9874045510227862
 40
0.9917161749506287
 40
0.9958992308651686
 40
1.0
 40
1.0
 40
1.0
 40
1.0
 10
-10.5841471218082
 20
15.8535155513091
 30
0.000000000000005
 10
-10.48730138508654
 20
15.90007083072669
 30
0.0000000000000051
 10
-10.27165731684727
 20
16.00373434955327
 30
0.0000000000000051
 10
-9.91570195561144
 20
16.17623014707533
 30
0.0000000000000052
 10
-9.491461836960298
 20
16.38347070469354
 30
0.0000000000000054
 10
-9.114107108973258
 20
16.5695332608484
 30
0.0000000000000055
 10
-8.812029950944634
 20
16.71966728309235
 30
0.0000000000000056
 10
-8.616429934245389
 20
16.81731500767637
 30
0.0000000000000056
 10
-8.441180505265947
 20
16.90515462598523
 30
0.0000000000000057
 10
-8.286281512097048
 20
16.98307738277435
 30
0.0000000000000057
 10
-8.151733936500023
 20
17.05099533947941
 30
0.0000000000000058
 10
-8.037535328203376
 20
17.1088302380831
 30
0.0000000000000058
 10
-7.871646346051421
 20
17.1931606284561
 30
0.0000000000000059
 10
-7.655402325848627
 20
17.30392573905374
 30
0.0000000000000059
 10
-7.390252386247084
 20
17.44124239648954
 30
0.000000000000006
 10
-7.149193395514885
 20
17.5676014503224
 30
0.0000000000000061
 10
-6.932218808151447
 20
17.68285558025127
 30
0.0000000000000062
 10
-6.739330420252372
 20
17.78690071737583
 30
0.0000000000000062
 10
-6.555245913999897
 20
17.88801549650816
 30
0.0000000000000063
 10
-6.379221714885716
 20
17.98734109452926
 30
0.0000000000000063
 10
-6.210555185449266
 20
18.08607298341667
 30
0.0000000000000064
 10
-6.063329063656056
 20
18.1761794424965
 30
0.0000000000000064
 10
-5.917564837902319
 20
18.27052315045512
 30
0.0000000000000065
 10
-5.779756982763502
 20
18.36827080531475
 30
0.0000000000000065
 10
-5.666327213484692
 20
18.4625140324224
 30
0.0000000000000066
 10
-5.593201252027939
 20
18.53883261558076
 30
0.0000000000000066
 10
-5.552515202467475
 20
18.59253545426509
 30
0.0000000000000067
 10
-5.526717989600002
 20
18.63818628160334
 30
0.0000000000000067
 10
-5.512930507156852
 20
18.67190459545782
 30
0.0000000000000067
 10
-5.505014513317292
 20
18.70102874170698
 30
0.0000000000000067
 10
-5.500790935931946
 20
18.72557263124691
 30
0.0000000000000067
 10
-5.500261893577772
 20
18.7419116445526
 30
0.0000000000000067
 10
-5.500000000003638
 20
18.74999999999818
 30
0.0000000000000067
  0
SPLINE
  5
1B1
330
21
100
AcDbEntity
  8
0
370
    -3
100
AcDbSpline
210
0.0
220
0.0
230
1.0
 70
     8
 71
     3
 72
    10
 73
     6
 74
     0
 42
0.000000001
 43
0.00000001
 40
0.0
 40
0.0
 40
0.0
 40
0.0
 40
0.3063325129572015
 40
0.644723990706476
 40
1.0
 40
1.0
 40
1.0
 40
1.0
 10
-11.90119209709701
 20
37.26977419787909
 30
0.0000000000000005
 10
-11.96840640618393
 20
37.29714717682691
 30
0.0000000000000005
 10
-12.10986927987324
 20
37.35475783021502
 30
0.0000000000000005
 10
-12.33964525301781
 20
37.41406993153032
 30
0.0000000000000005
 10
-12.50099584961572
 20
37.44431711410289
 30
0.0000000000000005
 10
-12.58363486200687
 20
37.45980882809818
 30
0.0000000000000005
  0
SPLINE
  5
1B2
330
21
100
AcDbEntity
  8
0
370
    -3
100
AcDbSpline
210
0.0
220
0.0
230
1.0
 70
     8
 71
     3
 72
    10
 73
     6
 74
     0
 42
0.000000001
 43
0.00000001
 40
0.0
 40
0.0
 40
0.0
 40
0.0
 40
0.3123439178983494
 40
0.6731073329017824
 40
1.0
 40
1.0
 40
1.0
 40
1.0
 10
-12.58363486200687
 20
37.45980882809818
 30
0.0000000000000005
 10
-12.67302513445611
 20
37.47342533722076
 30
0.0000000000000005
 10
-12.86566294306613
 20
37.50276918421878
 30
0.0000000000000005
 10
-13.1542963010088
 20
37.52814741685506
 30
0.0000000000000005
 10
-13.35329745020135
 20
37.53332864425283
 30
0.0000000000000005
 10
-13.44789708817189
 20
37.53579165634255
 30
0.0000000000000005
  0
SPLINE
  5
1B3
330
21
100
AcDbEntity
  8
0
370
    -3
100
AcDbSpline
210
0.0
220
0.0
230
1.0
 70
     8
 71
     3
 72
    27
 73
    23
 74
     0
 42
0.000000001
 43
0.00000001
 40
0.0
 40
0.0
 40
0.0
 40
0.0
 40
0.252741326141303
 40
0.5069432160531057
 40
0.5840477376182189
 40
0.6613891043486333
 40
0.7131926287726492
 40
0.7651592573471211
 40
0.7832580859610884
 40
0.8014247975900193
 40
0.8137401244810446
 40
0.8261328647217263
 40
0.8385157863621067
 40
0.8473580266037085
 40
0.8562400936929974
 40
0.8650974149832034
 40
0.8783775079500243
 40
0.8916317409168385
 40
0.9100703692342234
 40
0.9284375310841883
 40
0.9642830388875828
 40
1.0
 40
1.0
 40
1.0
 40
1.0
 10
-14.88421614138133
 20
-37.55235679812904
 30
-0.0000000000000049
 10
-14.7251502253439
 20
-37.54561669475515
 30
-0.0000000000000049
 10
-14.40609916918402
 20
-37.53209753770716
 30
-0.0000000000000049
 10
-14.04426840576343
 20
-37.45616092026285
 30
-0.0000000000000048
 10
-13.79961147492941
 20
-37.37667062260516
 30
-0.0000000000000048
 10
-13.68006176430208
 20
-37.32547031923241
 30
-0.0000000000000047
 10
-13.58005258189769
 20
-37.27052539780743
 30
-0.0000000000000047
 10
-13.51819485818487
 20
-37.2243967059967
 30
-0.0000000000000047
 10
-13.47892352203053
 20
-37.18506217998765
 30
-0.0000000000000047
 10
-13.4596098093898
 20
-37.16126857153358
 30
-0.0000000000000046
 10
-13.44496412048829
 20
-37.13856349397247
 30
-0.0000000000000046
 10
-13.43439286478315
 20
-37.11770235505537
 30
-0.0000000000000046
 10
-13.4271430665267
 20
-37.09775857415116
 30
-0.0000000000000046
 10
-13.4229014510729
 20
-37.07926036748722
 30
-0.0000000000000046
 10
-13.42087943678052
 20
-37.06262442864136
 30
-0.0000000000000046
 10
-13.42062784344671
 20
-37.04306787179848
 30
-0.0000000000000046
 10
-13.4235489091825
 20
-37.02088175287281
 30
-0.0000000000000046
 10
-13.43149026324681
 20
-36.99362041226959
 30
-0.0000000000000046
 10
-13.44533741039413
 20
-36.96512397594779
 30
-0.0000000000000046
 10
-13.47144562066751
 20
-36.92747012271866
 30
-0.0000000000000045
 10
-13.51118067795323
 20
-36.88654976413272
 30
-0.0000000000000045
 10
-13.54775285619689
 20
-36.86019962690443
 30
-0.0000000000000045
 10
-13.56600609826455
 20
-36.84704822448839
 30
-0.0000000000000045
  0
SPLINE
  5
1B4
330
21
100
AcDbEntity
  8
0
370
    -3
100
AcDbSpline
210
0.0
220
0.0
230
1.0
 70
     8
 71
     3
 72
    10
 73
     6
 74
     0
 42
0.000000001
 43
0.00000001
 40
0.0
 40
0.0
 40
0.0
 40
0.0
 40
0.4910512965592794
 40
0.7450552301911301
 40
1.0
 40
1.0
 40
1.0
 40
1.0
 10
-13.56600609826455
 20
-36.84704822448839
 30
-0.0000000000000045
 10
-13.81096934893503
 20
-36.66577821674582
 30
-0.0000000000000045
 10
-14.18264365749383
 20
-36.39074347334827
 30
-0.0000000000000044
 10
-14.61649130792284
 20
-35.94554419785527
 30
-0.0000000000000042
 10
-14.805380709784
 20
-35.69285671662328
 30
-0.0000000000000041
 10
-14.90000000000146
 20
-35.56627941855731
 30
-0.0000000000000041
  0
SPLINE
  5
1B5
330
21
100
AcDbEntity
  8
0
370
    -3
100
AcDbSpline
210
0.0
220
0.0
230
1.0
 70
     8
 71
     3
 72
    12
 73
     8
 74
     0
 42
0.000000001
 43
0.00000001
 40
0.0
 40
0.0
 40
0.0
 40
0.0
 40
0.2758467091989728
 40
0.4187128769136911
 40
0.5620597406004318
 40
0.7789083608589091
 40
1.0
 40
1.0
 40
1.0
 40
1.0
 10
-15.36976162009887
 20
-32.88820170589861
 30
-0.0000000000000029
 10
-15.29137837414783
 20
-33.02388288551629
 30
-0.000000000000003
 10
-15.17239897972286
 20
-33.22983588465104
 30
-0.0000000000000031
 10
-15.05856483633579
 20
-33.52816372426423
 30
-0.0000000000000032
 10
-14.97721444956005
 20
-33.80152329381417
 30
-0.0000000000000033
 10
-14.91353605912809
 20
-34.12622713292149
 30
-0.0000000000000034
 10
-14.904541069267
 20
-34.37460689531144
 30
-0.0000000000000035
 10
-14.89999999999782
 20
-34.50000000000364
 30
-0.0000000000000036
  0
SPLINE
  5
1B6
330
21
100
AcDbEntity
  8
0
370
    -3
100
AcDbSpline
210
0.0
220
0.0
230
1.0
 70
     8
 71
     3
 72
    16
 73
    12
 74
     0
 42
0.000000001
 43
0.00000001
 40
0.0
 40
0.0
 40
0.0
 40
0.0
 40
0.0714249540894402
 40
0.1425683159839628
 40
0.2158637373322068
 40
0.2888805839786147
 40
0.3854454684980766
 40
0.481716471835189
 40
0.6787545793165349
 40
0.8386516813650933
 40
1.0
 40
1.0
 40
1.0
 40
1.0
 10
-15.36976203023187
 20
-32.88820086825035
 30
-0.0000000000000029
 10
-15.33730987750823
 20
-32.79189011502967
 30
-0.0000000000000029
 10
-15.27253351436229
 20
-32.5996483128074
 30
-0.0000000000000028
 10
-15.14049827854433
 20
-32.32185409908743
 30
-0.0000000000000027
 10
-14.98530896220655
 20
-32.05410742904496
 30
-0.0000000000000025
 10
-14.78747301526164
 20
-31.77059390491195
 30
-0.0000000000000024
 10
-14.54447434169924
 20
-31.48029201317149
 30
-0.0000000000000022
 10
-14.15200773756078
 20
-31.08793629226966
 30
-0.000000000000002
 10
-13.64280743432573
 20
-30.68923273035762
 30
-0.0000000000000018
 10
-13.01571048830374
 20
-30.29987031348173
 30
-0.0000000000000016
 10
-12.60458996591842
 20
-30.10025735302224
 30
-0.0000000000000015
 10
-12.39810109238897
 20
-30.00000000000182
 30
-0.0000000000000014
  0
SPLINE
  5
1B7
330
21
100
AcDbEntity
  8
0
370
    -3
100
AcDbSpline
210
0.0
220
0.0
230
1.0
 70
     8
 71
     3
 72
    10
 73
     6
 74
     0
 42
0.000000001
 43
0.00000001
 40
0.0
 40
0.0
 40
0.0
 40
0.0
 40
0.4982752801174289
 40
0.7487629909048995
 40
1.0
 40
1.0
 40
1.0
 40
1.0
 10
-12.39810109238897
 20
-30.00000000000182
 30
-0.0000000000000014
 10
-12.09599579755741
 20
-29.85998807647229
 30
-0.0000000000000013
 10
-11.64201930473791
 20
-29.64959083059694
 30
-0.0000000000000012
 10
-11.03800154679266
 20
-29.36371924893319
 30
-0.000000000000001
 10
-10.73558248441805
 20
-29.2189680982483
 30
-0.0000000000000009
 10
-10.58414713010279
 20
-29.1464844339589
 30
-0.0000000000000009
  0
SPLINE
  5
1B8
330
21
100
AcDbEntity
  8
0
370
    -3
100
AcDbSpline
210
0.0
220
0.0
230
1.0
 70
     8
 71
     3
 72
    37
 73
    33
 74
     0
 42
0.000000001
 43
0.00000001
 40
0.0
 40
0.0
 40
0.0
 40
0.0
 40
0.0545046711781345
 40
0.1213642378921695
 40
0.2006357416226707
 40
0.2939965689148282
 40
0.334773623040398
 40
0.3717405879445248
 40
0.4048878434547395
 40
0.4342073045612534
 40
0.4596922526742921
 40
0.4813371822953299
 40
0.4991376655295401
 40
0.554085267266918
 40
0.6045752802634761
 40
0.6505960337772893
 40
0.6921382578982335
 40
0.7291948840813902
 40
0.7617609264503014
 40
0.7986699506088073
 40
0.8317105936696266
 40
0.8608892343500407
 40
0.8862176309459305
 40
0.9197697308154237
 40
0.9465516888994897
 40
0.9608613521859225
 40
0.9733037180333949
 40
0.9806076346250562
 40
0.9874045510233072
 40
0.991716174951093
 40
0.9958992308654551
 40
1.0
 40
1.0
 40
1.0
 40
1.0
 10
-10.58414712180638
 20
-29.1464844486909
 30
-0.0000000000000009
 10
-10.48730138507381
 20
-29.09992916926785
 30
-0.0000000000000008
 10
-10.27165731681998
 20
-28.996265650434
 30
-0.0000000000000008
 10
-9.915701955576878
 20
-28.8237698529083
 30
-0.0000000000000007
 10
-9.491461837760653
 20
-28.61652929569755
 30
-0.0000000000000006
 10
-9.114107111230624
 20
-28.43046674026664
 30
-0.0000000000000004
 10
-8.812029955022808
 20
-28.28033271893764
 30
-0.0000000000000003
 10
-8.616429939447698
 20
-28.18268499491933
 30
-0.0000000000000003
 10
-8.441180510850245
 20
-28.09484537681419
 30
-0.0000000000000002
 10
-8.28628151733028
 20
-28.01692261985409
 30
-0.0000000000000002
 10
-8.15173394064368
 20
-27.94900466260697
 30
-0.0000000000000001
 10
-8.037535330520768
 20
-27.89116976308469
 30
-0.0000000000000001
 10
-7.871646346819034
 20
-27.80683937194226
 30
-0.0000000000000001
 10
-7.655402325617615
 20
-27.69607426086804
 30
0.0
 10
-7.39025238585964
 20
-27.55875760337403
 30
0.0000000000000001
 10
-7.14919339507469
 20
-27.43239854952299
 30
0.0000000000000002
 10
-6.932218807764002
 20
-27.31714441961412
 30
0.0000000000000002
 10
-6.739330420019542
 20
-27.21309928254959
 30
0.0000000000000003
 10
-6.555245913777981
 20
-27.11198450336633
 30
0.0000000000000004
 10
-6.379221714578307
 20
-27.01265890523973
 30
0.0000000000000004
 10
-6.210555185007252
 20
-26.91392701626137
 30
0.0000000000000005
 10
-6.063329063346828
 20
-26.82382055727612
 30
0.0000000000000005
 10
-5.917564837771351
 20
-26.72947684945757
 30
0.0000000000000006
 10
-5.779756982763502
 20
-26.63172919469616
 30
0.0000000000000006
 10
-5.666327213484692
 20
-26.5374859675776
 30
0.0000000000000007
 10
-5.593201252027939
 20
-26.46116738441197
 30
0.0000000000000007
 10
-5.552515202463837
 20
-26.40746454572945
 30
0.0000000000000007
 10
-5.526717989601821
 20
-26.36181371839484
 30
0.0000000000000008
 10
-5.512930507156852
 20
-26.32809540453854
 30
0.0000000000000008
 10
-5.505014513317292
 20
-26.2989712582912
 30
0.0000000000000008
 10
-5.500790935931946
 20
-26.27442736875128
 30
0.0000000000000008
 10
-5.500261893577772
 20
-26.2580883554474
 30
0.0000000000000008
 10
-5.500000000003638
 20
-26.25000000000182
 30
0.0000000000000008
  0
SPLINE
  5
1B9
330
21
100
AcDbEntity
  8
0
370
    -3
100
AcDbSpline
210
0.0
220
0.0
230
1.0
 70
     8
 71
     3
 72
    18
 73
    14
 74
     0
 42
0.000000001
 43
0.00000001
 40
0.0
 40
0.0
 40
0.0
 40
0.0
 40
0.1270461313737331
 40
0.2479026413994933
 40
0.3767428375117864
 40
0.4979710061922668
 40
0.5855865333228013
 40
0.6692618881320008
 40
0.7499322331179825
 40
0.8140962195210603
 40
0.8767576655213625
 40
0.9385183724385194
 40
1.0
 40
1.0
 40
1.0
 40
1.0
 10
-12.39810109238533
 20
-22.50000000000182
 30
0.0000000000000019
 10
-12.59410625656528
 20
-22.40509700226903
 30
0.0000000000000019
 10
-12.9765673154161
 20
-22.21991463142149
 30
0.000000000000002
 10
-13.52867257819162
 20
-21.88362823938951
 30
0.0000000000000021
 10
-14.04107892144748
 20
-21.50593723884595
 30
0.0000000000000022
 10
-14.46513230972778
 20
-21.11009597419979
 30
0.0000000000000023
 10
-14.79136525905051
 20
-20.72856802712158
 30
0.0000000000000025
 10
-15.03596350054795
 20
-20.37177485587563
 30
0.0000000000000026
 10
-15.21905927171611
 20
-20.02467822984363
 30
0.0000000000000028
 10
-15.34971708759622
 20
-19.69336212529015
 30
0.0000000000000029
 10
-15.43599788221036
 20
-19.38150879202658
 30
0.000000000000003
 10
-15.49002999286495
 20
-19.066646923402
 30
0.0000000000000032
 10
-15.49668168515564
 20
-18.85538951199669
 30
0.0000000000000032
 10
-15.50000000000182
 20
-18.75000000000182
 30
0.0000000000000033
  0
SPLINE
  5
1BA
330
21
100
AcDbEntity
  8
0
370
    -3
100
AcDbSpline
210
0.0
220
0.0
230
1.0
 70
     8
 71
     3
 72
    18
 73
    14
 74
     0
 42
0.000000001
 43
0.00000001
 40
0.0
 40
0.0
 40
0.0
 40
0.0
 40
0.0614783315267769
 40
0.1232379719178462
 40
0.1859005045685063
 40
0.2500675649502403
 40
0.3307298821884327
 40
0.4144053175637139
 40
0.5020288686783474
 40
0.6232478669673839
 40
0.7520972846676692
 40
0.8729484548672244
 40
1.0
 40
1.0
 40
1.0
 40
1.0
 10
-15.50000000000182
 20
-18.75000000000182
 30
0.0000000000000033
 10
-15.49668154333631
 20
-18.6446161668282
 30
0.0000000000000033
 10
-15.49002944560743
 20
-18.43336629145233
 30
0.0000000000000034
 10
-15.43599673905555
 20
-18.11851026515615
 30
0.0000000000000036
 10
-15.34971500280335
 20
-17.80665199832401
 30
0.0000000000000037
 10
-15.21906811452936
 20
-17.47533888945873
 30
0.0000000000000039
 10
-15.03598123705706
 20
-17.12824670331429
 30
0.000000000000004
 10
-14.79137970496413
 20
-16.77145579928037
 30
0.0000000000000042
 10
-14.46515375440686
 20
-16.38992450545084
 30
0.0000000000000044
 10
-14.04109117486041
 20
-15.9940727786543
 30
0.0000000000000046
 10
-13.52869309304151
 20
-15.61638606607994
 30
0.0000000000000048
 10
-12.97657683904072
 20
-15.28008731306909
 30
0.000000000000005
 10
-12.59411496710163
 20
-15.09490631164954
 30
0.0000000000000051
 10
-12.39810109238897
 20
-15.00000000000182
 30
0.0000000000000052
  0
SPLINE
  5
1BB
330
21
100
AcDbEntity
  8
0
370
    -3
100
AcDbSpline
210
0.0
220
0.0
230
1.0
 70
     8
 71
     3
 72
     9
 73
     5
 74
     0
 42
0.000000001
 43
0.00000001
 40
0.0
 40
0.0
 40
0.0
 40
0.0
 40
0.4750853403238354
 40
1.0
 40
1.0
 40
1.0
 40
1.0
 10
-12.39810109238897
 20
-15.00000000000182
 30
0.0000000000000052
 10
-12.11000769594648
 20
-14.86660579587988
 30
0.0000000000000053
 10
-11.50360423115853
 20
-14.58582633838159
 30
0.0000000000000055
 10
-10.90064779453678
 20
-14.2977171731236
 30
0.0000000000000056
 10
-10.58414712180638
 20
-14.14648444869272
 30
0.0000000000000057
  0
SPLINE
  5
1BC
330
21
100
AcDbEntity
  8
0
370
    -3
100
AcDbSpline
210
0.0
220
0.0
230
1.0
 70
     8
 71
     3
 72
    37
 73
    33
 74
     0
 42
0.000000001
 43
0.00000001
 40
0.0
 40
0.0
 40
0.0
 40
0.0
 40
0.0545046680767615
 40
0.1213642340949017
 40
0.2006357395474367
 40
0.2939965711193528
 40
0.33477362691277
 40
0.3717405928260671
 40
0.4048878486850265
 40
0.4342073094785534
 40
0.4596922566159376
 40
0.4813371845980387
 40
0.4991376655296997
 40
0.5540852676767052
 40
0.6045752809195716
 40
0.6505960345158671
 40
0.6921382585551111
 40
0.7291948844921314
 40
0.7617609264503163
 40
0.7986699506717189
 40
0.8317105937535437
 40
0.8608892344130167
 40
0.8862176309460348
 40
0.9197697308331176
 40
0.9465516888994151
 40
0.9608613521840867
 40
0.9733037180333916
 40
0.9806076346248612
 40
0.9874045510230468
 40
0.9917161749508576
 40
0.9958992308653117
 40
1.0
 40
1.0
 40
1.0
 40
1.0
 10
-10.58414712180638
 20
-14.14648444869272
 30
0.0000000000000057
 10
-10.48730139058171
 20
-14.0999291719254
 30
0.0000000000000058
 10
-10.2716573290636
 20
-13.99626565635481
 30
0.0000000000000058
 10
-9.915701971463932
 20
-13.82376986069357
 30
0.0000000000000059
 10
-9.49146184422716
 20
-13.61652929893535
 30
0.000000000000006
 10
-9.114107104160212
 20
-13.4304667367669
 30
0.0000000000000062
 10
-8.812029935701503
 20
-13.28033270927335
 30
0.0000000000000063
 10
-8.616429914809487
 20
-13.18268498254838
 30
0.0000000000000063
 10
-8.441180484389406
 20
-13.09484536348282
 30
0.0000000000000064
 10
-8.286281492537455
 20
-13.01692260733034
 30
0.0000000000000064
 10
-8.151733921013147
 20
-12.94900465266801
 30
0.0000000000000065
 10
-8.037535319541348
 20
-12.89116975751858
 30
0.0000000000000065
 10
-7.871646342060558
 20
-12.806839369503
 30
0.0000000000000065
 10
-7.655402323778617
 20
-12.69607425985123
 30
0.0000000000000066
 10
-7.390252382741892
 20
-12.55875760166055
 30
0.0000000000000067
 10
-7.149193391531298
 20
-12.43239854757121
 30
0.0000000000000068
 10
-6.932218804646254
 20
-12.31714441789336
 30
0.0000000000000068
 10
-6.739330418176905
 20
-12.2130992815346
 30
0.0000000000000069
 10
-6.555245912961254
 20
-12.1119845029134
 30
0.000000000000007
 10
-6.379221714330924
 20
-12.01265890509057
 30
0.000000000000007
 10
-6.210555184652549
 20
-11.91392701604855
 30
0.0000000000000071
 10
-6.063329063093988
 20
-11.82382055713242
 30
0.0000000000000071
 10
-5.917564837640384
 20
-11.72947684936662
 30
0.0000000000000072
 10
-5.77975698274895
 20
-11.63172919465615
 30
0.0000000000000072
 10
-5.666327213461045
 20
-11.53748596755759
 30
0.0000000000000073
 10
-5.59320125202612
 20
-11.4611673844156
 30
0.0000000000000073
 10
-5.552515202463837
 20
-11.40746454573309
 30
0.0000000000000073
 10
-5.526717989600002
 20
-11.36181371839666
 30
0.0000000000000074
 10
-5.512930507156852
 20
-11.32809540454036
 30
0.0000000000000074
 10
-5.505014513317292
 20
-11.2989712582912
 30
0.0000000000000074
 10
-5.500790935931946
 20
-11.27442736875309
 30
0.0000000000000074
 10
-5.500261893577772
 20
-11.2580883554474
 30
0.0000000000000074
 10
-5.500000000003638
 20
-11.25000000000182
 30
0.0000000000000074
  0
SPLINE
  5
1BD
330
21
100
AcDbEntity
  8
0
370
    -3
100
AcDbSpline
210
0.0
220
0.0
230
1.0
 70
     8
 71
     3
 72
    31
 73
    27
 74
     0
 42
0.000000001
 43
0.00000001
 40
0.0
 40
0.0
 40
0.0
 40
0.0
 40
0.0040997251148788
 40
0.0082823328428648
 40
0.012594098287131
 40
0.019392281331334
 40
0.0266986151047223
 40
0.0391351172106051
 40
0.0534532689455588
 40
0.1287814186599689
 40
0.209275632253402
 40
0.2842816073980102
 40
0.309361852224853
 40
0.3363970232122339
 40
0.3653851698966812
 40
0.3963239338866973
 40
0.4292105274358246
 40
0.4640417067104547
 40
0.5008137412821717
 40
0.5468286048867006
 40
0.612674912537009
 40
0.6982741977902543
 40
0.79408611977859
 40
0.8756311073806645
 40
0.9442488285935727
 40
1.0
 40
1.0
 40
1.0
 40
1.0
 10
-5.500000000003638
 20
-26.25000000000182
 30
0.0000000000000008
 10
-5.50026193589656
 20
-26.24191449416139
 30
0.0000000000000008
 10
-5.500791103142546
 20
-26.22558002082769
 30
0.0000000000000008
 10
-5.505014899856178
 20
-26.20104131441258
 30
0.0000000000000008
 10
-5.51293135319429
 20
-26.17191847282993
 30
0.0000000000000009
 10
-5.526718947228801
 20
-26.1381957269241
 30
0.0000000000000009
 10
-5.552508020546156
 20
-26.09255254447817
 30
0.0000000000000009
 10
-5.593160450229334
 20
-26.03881629192801
 30
0.0000000000000009
 10
-5.733000530379286
 20
-25.89364912929159
 30
0.000000000000001
 10
-6.013032143368036
 20
-25.70366872919658
 30
0.000000000000001
 10
-6.403144149297077
 20
-25.47115794342244
 30
0.0000000000000011
 10
-6.715386488613149
 20
-25.29966483908356
 30
0.0000000000000011
 10
-6.936054786259774
 20
-25.18095613906189
 30
0.0000000000000012
 10
-7.077185312340589
 20
-25.10582634667298
 30
0.0000000000000012
 10
-7.228807159324788
 20
-25.0258407134952
 30
0.0000000000000012
 10
-7.390930507270241
 20
-24.94103970846118
 30
0.0000000000000012
 10
-7.563551814120729
 20
-24.8514607474699
 30
0.0000000000000013
 10
-7.746675131958909
 20
-24.7571565692615
 30
0.0000000000000013
 10
-7.953111033446476
 20
-24.6515975071743
 30
0.0000000000000013
 10
-8.214466039797117
 20
-24.51915245307282
 30
0.0000000000000014
 10
-8.562200150041463
 20
-24.34423196392163
 30
0.0000000000000014
 10
-8.998375322362335
 20
-24.12668847132409
 30
0.0000000000000015
 10
-9.463227113707035
 20
-23.8973143008734
 30
0.0000000000000015
 10
-9.898870650393292
 20
-23.68440741449922
 30
0.0000000000000016
 10
-10.26413699039949
 20
-23.50735476808222
 30
0.0000000000000016
 10
-10.48509685894896
 20
-23.40113221517095
 30
0.0000000000000017
 10
-10.58414712180638
 20
-23.35351555131092
 30
0.0000000000000017
  0
SPLINE
  5
1BE
330
21
100
AcDbEntity
  8
0
370
    -3
100
AcDbSpline
210
0.0
220
0.0
230
1.0
 70
     8
 71
     3
 72
     9
 73
     5
 74
     0
 42
0.000000001
 43
0.00000001
 40
0.0
 40
0.0
 40
0.0
 40
0.0
 40
0.5249146596655444
 40
1.0
 40
1.0
 40
1.0
 40
1.0
 10
-10.58414712180638
 20
-23.35351555131092
 30
0.0000000000000017
 10
-10.9006477945295
 20
-23.20228282688367
 30
0.0000000000000017
 10
-11.50360423115126
 20
-22.91417366162568
 30
0.0000000000000018
 10
-12.11000769593738
 20
-22.6333942041274
 30
0.0000000000000019
 10
-12.39810109238533
 20
-22.50000000000182
 30
0.0000000000000019
  0
SPLINE
  5
1BF
330
21
100
AcDbEntity
  8
0
370
    -3
100
AcDbSpline
210
0.0
220
0.0
230
1.0
 70
     8
 71
     3
 72
     9
 73
     5
 74
     0
 42
0.000000001
 43
0.00000001
 40
0.0
 40
0.0
 40
0.0
 40
0.0
 40
0.5249146596649497
 40
1.0
 40
1.0
 40
1.0
 40
1.0
 10
-10.58414712180638
 20
-8.35351555131092
 30
-0.0000000000000056
 10
-10.9006477945295
 20
-8.202282826883675
 30
-0.0000000000000056
 10
-11.50360423115126
 20
-7.914173661625682
 30
-0.0000000000000055
 10
-12.11000769593738
 20
-7.63339420412558
 30
-0.0000000000000054
 10
-12.39810109238533
 20
-7.500000000001819
 30
-0.0000000000000054
  0
SPLINE
  5
1C0
330
21
100
AcDbEntity
  8
0
370
    -3
100
AcDbSpline
210
0.0
220
0.0
230
1.0
 70
     8
 71
     3
 72
    31
 73
    27
 74
     0
 42
0.000000001
 43
0.00000001
 40
0.0
 40
0.0
 40
0.0
 40
0.0
 40
0.0040997251138964
 40
0.0082823328413065
 40
0.0125940982853906
 40
0.0193922813300103
 40
0.02669861510455
 40
0.0391351171992985
 40
0.0534532689453255
 40
0.1287814186313573
 40
0.2092756322190903
 40
0.2842816073046632
 40
0.3093618521066288
 40
0.3363970230818929
 40
0.365385169766969
 40
0.3963239337703475
 40
0.4292105273455539
 40
0.4640417066589582
 40
0.500813741282113
 40
0.5468286075428475
 40
0.6126749157205864
 40
0.6982741993793181
 40
0.7940861177493337
 40
0.875631103330247
 40
0.9442488252243423
 40
1.0
 40
1.0
 40
1.0
 40
1.0
 10
-5.500000000003638
 20
-11.25000000000182
 30
0.0000000000000074
 10
-5.50026193589656
 20
-11.24191449416321
 30
0.0000000000000074
 10
-5.500791103142546
 20
-11.22558002083133
 30
0.0000000000000074
 10
-5.505014899856178
 20
-11.20104131442167
 30
0.0000000000000074
 10
-5.51293135319429
 20
-11.17191847283902
 30
0.0000000000000075
 10
-5.526718947228801
 20
-11.13819572692955
 30
0.0000000000000075
 10
-5.552508020529785
 20
-11.09255254449636
 30
0.0000000000000075
 10
-5.593160450220239
 20
-11.03881629194802
 30
0.0000000000000075
 10
-5.733000530311983
 20
-10.89364912933524
 30
0.0000000000000076
 10
-6.013032143260716
 20
-10.70366872925842
 30
0.0000000000000076
 10
-6.403144149036962
 20
-10.47115794358797
 30
0.0000000000000077
 10
-6.715386488183867
 20
-10.29966483931094
 30
0.0000000000000077
 10
-6.936054785663146
 20
-10.18095613937658
 30
0.0000000000000078
 10
-7.077185311682115
 20
-10.10582634702223
 30
0.0000000000000078
 10
-7.228807158669952
 20
-10.02584071384263
 30
0.0000000000000078
 10
-7.390930506682707
 20
-9.941039708768585
 30
0.0000000000000078
 10
-7.563551813669619
 20
-9.85146074770637
 30
0.0000000000000079
 10
-7.746675131711527
 20
-9.757156569390645
 30
0.0000000000000079
 10
-7.953111038021234
 20
-9.651597504842357
 30
0.0000000000000079
 10
-8.214466050052579
 20
-9.519152447843226
 30
0.000000000000008
 10
-8.562200163109082
 20
-9.34423195731324
 30
0.000000000000008
 10
-8.998375327199028
 20
-9.12668846890665
 30
0.0000000000000081
 10
-9.463227105785336
 20
-8.89731430482425
 30
-0.0000000000000058
 10
-9.898870633669503
 20
-8.684407422699223
 30
-0.0000000000000057
 10
-10.26413697723183
 20
-8.507354774450505
 30
-0.0000000000000056
 10
-10.48509685296631
 20
-8.401132218057683
 30
-0.0000000000000056
 10
-10.58414712180638
 20
-8.35351555131092
 30
-0.0000000000000056
  0
SPLINE
  5
1C1
330
21
100
AcDbEntity
  8
0
370
    -3
100
AcDbSpline
210
0.0
220
0.0
230
1.0
 70
     8
 71
     3
 72
    18
 73
    14
 74
     0
 42
0.000000001
 43
0.00000001
 40
0.0
 40
0.0
 40
0.0
 40
0.0
 40
0.1270461313972694
 40
0.2479026413996563
 40
0.3767428375180996
 40
0.497971006192129
 40
0.5855865333276564
 40
0.6692618881368927
 40
0.7499322331186111
 40
0.814096219530043
 40
0.8767576655332872
 40
0.9385183724475202
 40
1.0
 40
1.0
 40
1.0
 40
1.0
 10
-12.39810109238533
 20
-7.500000000001819
 30
-0.0000000000000054
 10
-12.59410625660348
 20
-7.405097002254479
 30
-0.0000000000000054
 10
-12.97656731545794
 20
-7.219914631412394
 30
-0.0000000000000053
 10
-13.52867257823527
 20
-6.883628239362224
 30
-0.0000000000000052
 10
-14.0410789214402
 20
-6.505937238820479
 30
-0.0000000000000051
 10
-14.46513230973869
 20
-6.110095974183423
 30
-0.0000000000000049
 10
-14.79136525907234
 20
-5.728568027119763
 30
-0.0000000000000048
 10
-15.03596350057524
 20
-5.371774855873809
 30
-0.0000000000000047
 10
-15.21905927172702
 20
-5.024678229823621
 30
-0.0000000000000045
 10
-15.34971708759076
 20
-4.693362125251952
 30
-0.0000000000000044
 10
-15.43599788220854
 20
-4.381508791973829
 30
-0.0000000000000043
 10
-15.49002999286313
 20
-4.066646923365624
 30
-0.0000000000000041
 10
-15.49668168515564
 20
-3.85538951198032
 30
-0.000000000000004
 10
-15.50000000000182
 20
-3.750000000001819
 30
-0.000000000000004
  0
SPLINE
  5
1C2
330
21
100
AcDbEntity
  8
0
370
    -3
100
AcDbSpline
210
0.0
220
0.0
230
1.0
 70
     8
 71
     3
 72
    18
 73
    14
 74
     0
 42
0.000000001
 43
0.00000001
 40
0.0
 40
0.0
 40
0.0
 40
0.0
 40
0.0614783315317059
 40
0.123237971924407
 40
0.1859005045735193
 40
0.2500675649507749
 40
0.3307298821609843
 40
0.4144053175365864
 40
0.5020288686775892
 40
0.6232478668959992
 40
0.7520972846673665
 40
0.8729484548405569
 40
1.0
 40
1.0
 40
1.0
 40
1.0
 10
-15.50000000000182
 20
-3.750000000001819
 30
-0.000000000000004
 10
-15.49668154333631
 20
-3.644616166819105
 30
-0.0000000000000039
 10
-15.49002944560743
 20
-3.433366291432321
 30
-0.0000000000000038
 10
-15.43599673905737
 20
-3.118510265128862
 30
-0.0000000000000037
 10
-15.34971500280517
 20
-2.806651998304005
 30
-0.0000000000000036
 10
-15.21906811454573
 20
-2.475338889495106
 30
-0.0000000000000034
 10
-15.03598123707889
 20
-2.128246703410696
 30
-0.0000000000000032
 10
-14.79137970497686
 20
-1.771455799387695
 30
-0.0000000000000031
 10
-14.46515375453237
 20
-1.389924505561794
 30
-0.0000000000000029
 10
-14.04109117496409
 20
-0.994072778717964
 30
-0.0000000000000027
 10
-13.52869309317612
 20
-0.6163860661763465
 30
-0.0000000000000024
 10
-12.97657683908801
 20
-0.2800873130781838
 30
-0.0000000000000023
 10
-12.59411496714529
 20
-0.094906311665909
 30
-0.0000000000000021
 10
-12.39810109238897
 20
-0.000000000001819
 30
-0.0000000000000021
  0
SPLINE
  5
1C3
330
21
100
AcDbEntity
  8
0
370
    -3
100
AcDbSpline
210
0.0
220
0.0
230
1.0
 70
     8
 71
     3
 72
    23
 73
    19
 74
     0
 42
0.000000001
 43
0.00000001
 40
0.0
 40
0.0
 40
0.0
 40
0.0
 40
0.0632794239040355
 40
0.1266470333630075
 40
0.1878284574583516
 40
0.2489177998018235
 40
0.312299487623113
 40
0.3753971653304227
 40
0.4386301287210807
 40
0.5016301439027505
 40
0.5632111311486068
 40
0.6248710628487661
 40
0.6882366879455281
 40
0.7519017663855176
 40
0.8143366719844061
 40
0.8770249133332203
 40
0.9384978928317579
 40
1.0
 40
1.0
 40
1.0
 40
1.0
 10
-20.68443634105643
 20
-33.38335130505948
 30
-0.0000000000000036
 10
-20.62769154166745
 20
-33.25657703453908
 30
-0.0000000000000035
 10
-20.51412286392042
 20
-33.00285182217704
 30
-0.0000000000000034
 10
-20.281121691718
 20
-32.6611149370583
 30
-0.0000000000000032
 10
-20.01121293447432
 20
-32.35551802810187
 30
-0.0000000000000031
 10
-19.70149491856864
 20
-32.0897236161818
 30
-0.0000000000000029
 10
-19.35556251507296
 20
-31.86534681057492
 30
-0.0000000000000028
 10
-18.97718419147168
 20
-31.68992607742803
 30
-0.0000000000000027
 10
-18.57927271939843
 20
-31.56788580950706
 30
-0.0000000000000026
 10
-18.17150990762639
 20
-31.50310085344972
 30
-0.0000000000000025
 10
-17.76226271957057
 20
-31.49383783537451
 30
-0.0000000000000025
 10
-17.35477737492147
 20
-31.54051906140921
 30
-0.0000000000000025
 10
-16.95276958877912
 20
-31.64288593573292
 30
-0.0000000000000025
 10
-16.56770477974715
 20
-31.80162751661373
 30
-0.0000000000000025
 10
-16.20886301530845
 20
-32.01025816345282
 30
-0.0000000000000026
 10
-15.88705911052966
 20
-32.26416083100776
 30
-0.0000000000000027
 10
-15.60020174320925
 20
-32.55529147960624
 30
-0.0000000000000028
 10
-15.44659210166355
 20
-32.77721657773145
 30
-0.0000000000000029
 10
-15.36976908903125
 20
-32.88820540919551
 30
-0.0000000000000029
  0
SPLINE
  5
1C4
330
21
100
AcDbEntity
  8
0
370
    -3
100
AcDbSpline
210
0.0
220
0.0
230
1.0
 70
     8
 71
     3
 72
    11
 73
     7
 74
     0
 42
0.000000001
 43
0.00000001
 40
0.0
 40
0.0
 40
0.0
 40
0.0
 40
0.2505851588659778
 40
0.4994868419814542
 40
0.7486330052488892
 40
1.0
 40
1.0
 40
1.0
 40
1.0
 10
-20.89999999999782
 20
-34.50000000000364
 30
-0.0000000000000041
 10
-20.89745700401545
 20
-34.40441013092095
 30
-0.000000000000004
 10
-20.89238809634844
 20
-34.21387258252798
 30
-0.000000000000004
 10
-20.84999127466472
 20
-33.93102759129033
 30
-0.0000000000000038
 10
-20.78407761215931
 20
-33.65241358599087
 30
-0.0000000000000037
 10
-20.71774820169958
 20
-33.47330364215668
 30
-0.0000000000000036
 10
-20.68443634105643
 20
-33.38335130505948
 30
-0.0000000000000036
  0
LINE
  5
1C5
330
21
100
AcDbEntity
  8
0
370
    -3
100
AcDbLine
 10
-52.70000000000255
 20
15.65999999999804
 30
0.0000000000000015
 11
-52.90000000000146
 21
15.65999999999804
 31
0.0000000000000014
  0
LINE
  5
1C6
330
21
100
AcDbEntity
  8
0
370
    -3
100
AcDbLine
 10
-52.90000000000146
 20
21.65999999999804
 30
0.0000000000000041
 11
-52.70000000000255
 21
21.65999999999804
 31
0.0000000000000041
  0
SPLINE
  5
1C7
330
21
100
AcDbEntity
  8
0
370
    -3
100
AcDbSpline
210
0.0
220
0.0
230
1.0
 70
     8
 71
     3
 72
    17
 73
    13
 74
     0
 42
0.000000001
 43
0.00000001
 40
0.0
 40
0.0
 40
0.0
 40
0.0
 40
0.0725189327486847
 40
0.1494005110584208
 40
0.2307623337706027
 40
0.3165898695172844
 40
0.4067699618624989
 40
0.5011208433920235
 40
0.6137524155513502
 40
0.734963251887368
 40
0.8640095455522941
 40
1.0
 40
1.0
 40
1.0
 40
1.0
 10
-52.70000000000255
 20
-7.361842858261298
 30
-0.0000000000000087
 10
-52.70026308308843
 20
-7.369960207428448
 30
-0.0000000000000087
 10
-52.7008050759996
 20
-7.386683235030432
 30
-0.0000000000000087
 10
-52.70490341420737
 20
-7.412239823857817
 30
-0.0000000000000087
 10
-52.71134871032518
 20
-7.438800394778809
 30
-0.0000000000000087
 10
-52.72041783154054
 20
-7.466168809627561
 30
-0.0000000000000087
 10
-52.73203078285042
 20
-7.494130722510818
 30
-0.0000000000000087
 10
-52.74692699998013
 20
-7.523889101021268
 30
-0.0000000000000087
 10
-52.76575208398936
 20
-7.555465726793045
 30
-0.0000000000000088
 10
-52.78907018501195
 20
-7.588741343690344
 30
-0.0000000000000088
 10
-52.81615875248826
 20
-7.622491503285346
 30
-0.0000000000000088
 10
-52.83678014758698
 20
-7.64382503703564
 30
-0.0000000000000088
 10
-52.84736099311522
 20
-7.654771281171634
 30
-0.0000000000000088
  0
LINE
  5
1C8
330
21
100
AcDbEntity
  8
0
370
    -3
100
AcDbLine
 10
-52.84735657873898
 20
-7.654775455621348
 30
-0.0000000000000088
 11
-52.90000000000146
 21
-7.602132034357055
 31
-0.0000000000000088
  0
LINE
  5
1C9
330
21
100
AcDbEntity
  8
0
370
    -3
100
AcDbLine
 10
-25.50000000000182
 20
-7.602132034357055
 30
-0.0000000000000065
 11
-25.55264342126611
 21
-7.654775455621348
 31
-0.0000000000000065
  0
SPLINE
  5
1CA
330
21
100
AcDbEntity
  8
0
370
    -3
100
AcDbSpline
210
0.0
220
0.0
230
1.0
 70
     8
 71
     3
 72
    17
 73
    13
 74
     0
 42
0.000000001
 43
0.00000001
 40
0.0
 40
0.0
 40
0.0
 40
0.0
 40
0.1359244333590321
 40
0.2649463383754574
 40
0.3861779095594431
 40
0.498876163951592
 40
0.5931990591559502
 40
0.6833620377604299
 40
0.7691842999545492
 40
0.8505529049729733
 40
0.9274527416485051
 40
1.0
 40
1.0
 40
1.0
 40
1.0
 10
-25.55263900688988
 20
-7.654771281171634
 30
-0.0000000000000065
 10
-25.56321469487375
 20
-7.643830271188563
 30
-0.0000000000000065
 10
-25.58382901518416
 20
-7.622503858699929
 30
-0.0000000000000065
 10
-25.61091257179942
 20
-7.588759505975759
 30
-0.0000000000000065
 10
-25.63423499786222
 20
-7.555478248927102
 30
-0.0000000000000065
 10
-25.65306741291533
 20
-7.523898223922515
 30
-0.0000000000000065
 10
-25.66797010066148
 20
-7.49414024750331
 30
-0.0000000000000065
 10
-25.6795827928654
 20
-7.466184156948657
 30
-0.0000000000000065
 10
-25.68865186067342
 20
-7.438817451624345
 30
-0.0000000000000065
 10
-25.69509700783237
 20
-7.412254447528539
 30
-0.0000000000000064
 10
-25.69919508758539
 20
-7.386691696785419
 30
-0.0000000000000064
 10
-25.69973695642329
 20
-7.369963403134534
 30
-0.0000000000000064
 10
-25.70000000000255
 20
-7.361842858261298
 30
-0.0000000000000064
  0
LINE
  5
1CB
330
21
100
AcDbEntity
  8
0
370
    -3
100
AcDbLine
 10
-52.90000000000146
 20
37.42213203435495
 30
-0.0000000000000029
 11
-52.69999999999527
 21
37.62213203436113
 31
-0.0000000000000028
  0
LINE
  5
1CC
330
21
100
AcDbEntity
  8
0
370
    -3
100
AcDbLine
 10
-25.70000000000255
 20
37.62213203435567
 30
-0.0000000000000005
 11
-25.50000000000182
 21
37.42213203435495
 31
-0.0000000000000006
  0
SPLINE
  5
1CD
330
21
100
AcDbEntity
  8
0
370
    -3
100
AcDbSpline
210
0.0
220
0.0
230
1.0
 70
     8
 71
     3
 72
    19
 73
    15
 74
     0
 42
0.000000001
 43
0.00000001
 40
0.0
 40
0.0
 40
0.0
 40
0.0
 40
0.0636035783305001
 40
0.1232526544149921
 40
0.1805301909610533
 40
0.238100271553085
 40
0.299583024886295
 40
0.3689417567098393
 40
0.448056733998054
 40
0.5371733986133368
 40
0.637076899420899
 40
0.7478910294388327
 40
0.8691764678920979
 40
1.0
 40
1.0
 40
1.0
 40
1.0
 10
-37.40772094000204
 20
-12.59535944046729
 30
0.0000000000000042
 10
-37.40759450467522
 20
-12.60109755807571
 30
0.0000000000000042
 10
-37.40734949503894
 20
-12.61221703036063
 30
0.0000000000000042
 10
-37.40469004262923
 20
-12.62834356495659
 30
0.0000000000000042
 10
-37.39959919010835
 20
-12.6433259269179
 30
0.0000000000000042
 10
-37.39134895115785
 20
-12.65707268395818
 30
0.0000000000000042
 10
-37.37947900906693
 20
-12.66941129021689
 30
0.0000000000000041
 10
-37.36378500624414
 20
-12.68018293150453
 30
0.0000000000000041
 10
-37.34434848402816
 20
-12.68935624612823
 30
0.0000000000000041
 10
-37.32131015040795
 20
-12.69684527936988
 30
0.0000000000000041
 10
-37.29487063081615
 20
-12.70264470183429
 30
0.0000000000000041
 10
-37.26519726186234
 20
-12.70674436826448
 30
0.0000000000000041
 10
-37.23254945347981
 20
-12.70927331733947
 30
0.0000000000000041
 10
-37.20981617690268
 20
-12.70956268376176
 30
0.0000000000000041
 10
-37.19801950210785
 20
-12.70971284080406
 30
0.0000000000000041
  0
SPLINE
  5
1CE
330
21
100
AcDbEntity
  8
0
370
    -3
100
AcDbSpline
210
0.0
220
0.0
230
1.0
 70
     8
 71
     3
 72
     9
 73
     5
 74
     0
 42
0.000000001
 43
0.00000001
 40
0.0
 40
0.0
 40
0.0
 40
0.0
 40
0.7450457391596513
 40
1.0
 40
1.0
 40
1.0
 40
1.0
 10
-37.12713902457472
 20
-12.70971284080406
 30
0.0000000000000042
 10
-37.12351619882611
 20
-12.71172042329454
 30
0.0000000000000042
 10
-37.1186536440091
 20
-12.71441499945831
 30
0.0000000000000042
 10
-37.11378956981753
 20
-12.71710683167657
 30
0.0000000000000041
 10
-37.11254945337714
 20
-12.71779312577019
 30
0.0000000000000041
  0
LINE
  5
1CF
330
21
100
AcDbEntity
  8
0
370
    -3
100
AcDbLine
 10
-37.11254945337714
 20
-12.71779312577019
 30
0.0000000000000041
 11
-37.10772093301421
 21
-12.72046501842851
 31
0.0000000000000041
  0
LINE
  5
1D0
330
21
100
AcDbEntity
  8
0
370
    -3
100
AcDbLine
 10
-37.10933044860758
 20
-12.71779311888349
 30
0.0000000000000041
 11
-37.10772093271225
 21
-12.7204650266649
 31
0.0000000000000041
  0
SPLINE
  5
1D1
330
21
100
AcDbEntity
  8
0
370
    -3
100
AcDbSpline
210
0.0
220
0.0
230
1.0
 70
    24
 71
     3
 72
     8
 73
     4
 74
     0
 42
0.000000001
 43
0.00000001
 40
0.0
 40
0.0
 40
0.0
 40
0.0
 40
1.0
 40
1.0
 40
1.0
 40
1.0
 10
-37.11254947706402
 20
-12.71779311477621
 30
0.0000000000000041
 10
-37.11236514953634
 20
-12.71779311482715
 30
0.0000000000000041
 10
-37.11218082200867
 20
-12.71779311487626
 30
0.0000000000000041
 10
-37.11199649448099
 20
-12.71779311492719
 30
0.0000000000000041
  0
LINE
  5
1D2
330
21
100
AcDbEntity
  8
0
370
    -3
100
AcDbLine
 10
-37.11199649448099
 20
-12.71779311492719
 30
0.0000000000000041
 11
-37.10933044628291
 21
-12.71779311565842
 31
0.0000000000000041
  0
SPLINE
  5
1D3
330
21
100
AcDbEntity
  8
0
370
    -3
100
AcDbSpline
210
0.0
220
0.0
230
1.0
 70
     8
 71
     3
 72
     9
 73
     5
 74
     0
 42
0.000000001
 43
0.00000001
 40
0.0
 40
0.0
 40
0.0
 40
0.0
 40
0.7451307304813732
 40
1.0
 40
1.0
 40
1.0
 40
1.0
 10
-37.11419363485948
 20
-12.70971284080406
 30
0.0000000000000042
 10
-37.11298622549839
 20
-12.71172009257862
 30
0.0000000000000042
 10
-37.11136582613472
 20
-12.71441391755616
 30
0.0000000000000042
 10
-37.10974384241308
 20
-12.71710678876661
 30
0.0000000000000042
 10
-37.10933044860758
 20
-12.71779311888349
 30
0.0000000000000041
  0
SPLINE
  5
1D4
330
21
100
AcDbEntity
  8
0
370
    -3
100
AcDbSpline
210
0.0
220
0.0
230
1.0
 70
     8
 71
     3
 72
     9
 73
     5
 74
     0
 42
0.000000001
 43
0.00000001
 40
0.0
 40
0.0
 40
0.0
 40
0.0
 40
0.5602057733628424
 40
1.0
 40
1.0
 40
1.0
 40
1.0
 10
-36.97734484487773
 20
-12.59008893593273
 30
0.0000000000000042
 10
-36.97935145067822
 20
-12.58646222084826
 30
0.0000000000000042
 10
-36.98293335913695
 20
-12.57998832275916
 30
0.0000000000000042
 10
-36.98651975772736
 20
-12.57351691110853
 30
0.0000000000000042
 10
-36.98809703512234
 20
-12.57067082162575
 30
0.0000000000000042
  0
SPLINE
  5
1D5
330
21
100
AcDbEntity
  8
0
370
    -3
100
AcDbSpline
210
0.0
220
0.0
230
1.0
 70
     8
 71
     3
 72
     9
 73
     5
 74
     0
 42
0.000000001
 43
0.00000001
 40
0.0
 40
0.0
 40
0.0
 40
0.0
 40
0.5600715146902481
 40
1.0
 40
1.0
 40
1.0
 40
1.0
 10
-36.97734484487773
 20
-12.59008893593273
 30
0.0000000000000042
 10
-36.97935175723433
 20
-12.5888798465603
 30
0.0000000000000042
 10
-36.98293507169365
 20
-12.58672103408753
 30
0.0000000000000042
 10
-36.98651994655484
 20
-12.58456481386202
 30
0.0000000000000042
 10
-36.98809703512234
 20
-12.58361623116434
 30
0.0000000000000042
  0
SPLINE
  5
1D6
330
21
100
AcDbEntity
  8
0
370
    -3
100
AcDbSpline
210
0.0
220
0.0
230
1.0
 70
     8
 71
     3
 72
    19
 73
    15
 74
     0
 42
0.000000001
 43
0.00000001
 40
0.0
 40
0.0
 40
0.0
 40
0.0
 40
0.1308472212375922
 40
0.2521444443271005
 40
0.3629598028776956
 40
0.4628562239140085
 40
0.5519604854738818
 40
0.6310612387930895
 40
0.7004318424288333
 40
0.7619209059623938
 40
0.8194924056144232
 40
0.8767668636566911
 40
0.9364084581595676
 40
1.0
 40
1.0
 40
1.0
 40
1.0
 10
-36.98809703512234
 20
-12.49979037382764
 30
0.0000000000000043
 10
-36.98824717717798
 20
-12.48799157448775
 30
0.0000000000000043
 10
-36.98853650304409
 20
-12.46525512143126
 30
0.0000000000000043
 10
-36.99106536346881
 20
-12.43260402053602
 30
0.0000000000000043
 10
-36.99516496326396
 20
-12.40293012004986
 30
0.0000000000000043
 10
-37.00096438208493
 20
-12.37649230446732
 30
0.0000000000000043
 10
-37.0084533777117
 20
-12.35345713293827
 30
0.0000000000000043
 10
-37.01762807134401
 20
-12.3340227251756
 30
0.0000000000000043
 10
-37.02840156194361
 20
-12.3183296010975
 30
0.0000000000000043
 10
-37.04074207727172
 20
-12.30645917255788
 30
0.0000000000000043
 10
-37.05448948693811
 20
-12.29820925524109
 30
0.0000000000000043
 10
-37.06947117011987
 20
-12.29311905961004
 30
0.0000000000000043
 10
-37.08559571188925
 20
-12.29046025041316
 30
0.0000000000000043
 10
-37.09671341040666
 20
-12.2902153242685
 30
0.0000000000000043
 10
-37.10245043546092
 20
-12.29008893593164
 30
0.0000000000000043
  0
SPLINE
  5
1D7
330
21
100
AcDbEntity
  8
0
370
    -3
100
AcDbSpline
210
0.0
220
0.0
230
1.0
 70
     8
 71
     3
 72
    19
 73
    15
 74
     0
 42
0.000000001
 43
0.00000001
 40
0.0
 40
0.0
 40
0.0
 40
0.0
 40
0.0699602204354234
 40
0.1354992298715716
 40
0.197078514581228
 40
0.2555270802556617
 40
0.3120010323400578
 40
0.3678836801022023
 40
0.4246330081865881
 40
0.4836197256832082
 40
0.5991570561934737
 40
0.7141074066293236
 40
0.8474315305955691
 40
1.0
 40
1.0
 40
1.0
 40
1.0
 10
-36.98809703512234
 20
-12.55998941523103
 30
0.0000000000000042
 10
-36.98848981978881
 20
-12.55646865512972
 30
0.0000000000000042
 10
-36.98925056667395
 20
-12.5496496331325
 30
0.0000000000000042
 10
-36.99160690683129
 20
-12.53993178853852
 30
0.0000000000000042
 10
-36.99484821601254
 20
-12.53109603589292
 30
0.0000000000000042
 10
-36.99906029186786
 20
-12.52318530781304
 30
0.0000000000000042
 10
-37.00423209897599
 20
-12.51621929766952
 30
0.0000000000000042
 10
-37.01036375552758
 20
-12.51020226621586
 30
0.0000000000000042
 10
-37.01743844914745
 20
-12.50511359661505
 30
0.0000000000000043
 10
-37.02782432822823
 20
-12.49965300850999
 30
0.0000000000000043
 10
-37.04185851491275
 20
-12.4951359546867
 30
0.0000000000000043
 10
-37.06002826096665
 20
-12.49203373690943
 30
0.0000000000000043
 10
-37.08026243750282
 20
-12.49033902662813
 30
0.0000000000000043
 10
-37.09472982084844
 20
-12.49017595837904
 30
0.0000000000000043
 10
-37.10245043546092
 20
-12.49008893593236
 30
0.0000000000000043
  0
SPLINE
  5
1D8
330
21
100
AcDbEntity
  8
0
370
    -3
100
AcDbSpline
210
0.0
220
0.0
230
1.0
 70
     8
 71
     3
 72
    19
 73
    15
 74
     0
 42
0.000000001
 43
0.00000001
 40
0.0
 40
0.0
 40
0.0
 40
0.0
 40
0.1620743964123751
 40
0.3007148415536722
 40
0.4167997472608365
 40
0.5117010168795487
 40
0.5727500258412671
 40
0.6310795328820351
 40
0.688075000300387
 40
0.7452225806805364
 40
0.8039476663025691
 40
0.8654574450812306
 40
0.930635489368545
 40
1.0
 40
1.0
 40
1.0
 40
1.0
 10
-37.20772094000131
 20
-12.59535944046729
 30
0.0000000000000042
 10
-37.207607845452
 20
-12.60357326611847
 30
0.0000000000000042
 10
-37.20739800842057
 20
-12.61881329991775
 30
0.0000000000000042
 10
-37.20539436606487
 20
-12.63986402139017
 30
0.0000000000000042
 10
-37.20218376134289
 20
-12.65731379474528
 30
0.0000000000000042
 10
-37.19792246272118
 20
-12.67049010715891
 30
0.0000000000000042
 10
-37.19293605869825
 20
-12.68017165655147
 30
0.0000000000000042
 10
-37.18778086857674
 20
-12.68750962283593
 30
0.0000000000000042
 10
-37.18168870754016
 20
-12.69382659559051
 30
0.0000000000000042
 10
-37.17465552201975
 20
-12.69910728682771
 30
0.0000000000000042
 10
-37.16669271842147
 20
-12.70334970496879
 30
0.0000000000000042
 10
-37.15783057409499
 20
-12.70654095957616
 30
0.0000000000000042
 10
-37.14811869687037
 20
-12.70877255340929
 30
0.0000000000000042
 10
-37.14132368463652
 20
-12.70939297658151
 30
0.0000000000000042
 10
-37.13782046070446
 20
-12.70971284080406
 30
0.0000000000000042
  0
SPLINE
  5
1D9
330
21
100
AcDbEntity
  8
0
370
    -3
100
AcDbSpline
210
0.0
220
0.0
230
1.0
 70
     8
 71
     3
 72
    26
 73
    22
 74
     0
 42
0.000000001
 43
0.00000001
 40
0.0
 40
0.0
 40
0.0
 40
0.0
 40
0.0642080352565705
 40
0.1257543656186047
 40
0.1846387216278844
 40
0.240860845480605
 40
0.2768691156414119
 40
0.3137331397817944
 40
0.3605121654757244
 40
0.4072193570137205
 40
0.4538547142469668
 40
0.5004182370269813
 40
0.5469099252054235
 40
0.5915944927694756
 40
0.6319808460906646
 40
0.6927401070394507
 40
0.7537302765559628
 40
0.8149513526310058
 40
0.8764033332476362
 40
0.9380862163813759
 40
1.0
 40
1.0
 40
1.0
 40
1.0
 10
-37.10772094000276
 20
-12.49008893593236
 30
0.0000000000000043
 10
-37.11108326452631
 20
-12.49018660479487
 30
0.0000000000000042
 10
-37.11766853046538
 20
-12.49037789371869
 30
0.0000000000000042
 10
-37.12724072499805
 20
-12.49187128773701
 30
0.0000000000000042
 10
-37.13622655243307
 20
-12.49409283014575
 30
0.0000000000000042
 10
-37.14370902733936
 20
-12.49669430789072
 30
0.0000000000000042
 10
-37.14991825540346
 20
-12.49936780836106
 30
0.0000000000000042
 10
-37.15552250249675
 20
-12.50217156223698
 30
0.0000000000000042
 10
-37.16141646554388
 20
-12.50562132888808
 30
0.0000000000000042
 10
-37.16746290451738
 20
-12.50978436125843
 30
0.0000000000000042
 10
-37.17317945345894
 20
-12.51437198826352
 30
0.0000000000000042
 10
-37.17853692523386
 20
-12.51935765963208
 30
0.0000000000000042
 10
-37.18344652163069
 20
-12.52464625473112
 30
0.0000000000000042
 10
-37.1877623374221
 20
-12.53002003208712
 30
0.0000000000000042
 10
-37.19213682602458
 20
-12.53628104074778
 30
0.0000000000000042
 10
-37.19643739864296
 20
-12.54361352279557
 30
0.0000000000000042
 10
-37.20047645010709
 20
-12.55231293199722
 30
0.0000000000000042
 10
-37.2036801916056
 20
-12.56139412648008
 30
0.0000000000000042
 10
-37.20598613133552
 20
-12.57077634353482
 30
0.0000000000000042
 10
-37.20744805879804
 20
-12.58037482181135
 30
0.0000000000000042
 10
-37.2076298663851
 20
-12.5868468675817
 30
0.0000000000000042
 10
-37.20772094000131
 20
-12.59008893593273
 30
0.0000000000000042
  0
SPLINE
  5
1DA
330
21
100
AcDbEntity
  8
0
370
    -3
100
AcDbSpline
210
0.0
220
0.0
230
1.0
 70
     8
 71
     3
 72
    23
 73
    19
 74
     0
 42
0.000000001
 43
0.00000001
 40
0.0
 40
0.0
 40
0.0
 40
0.0
 40
0.0581781105120269
 40
0.1175911615423503
 40
0.1782390971243699
 40
0.2401218601281972
 40
0.3032393922608025
 40
0.3675916340659512
 40
0.433178524924374
 40
0.5000000030537319
 40
0.566832131774595
 40
0.6324266305829983
 40
0.6967834373844654
 40
0.759902491256173
 40
0.8217837324469953
 40
0.8824271023776278
 40
0.9418325436405021
 40
1.0
 40
1.0
 40
1.0
 40
1.0
 10
-37.10772094000276
 20
-12.29008893593164
 30
0.0000000000000043
 10
-37.1168589914505
 20
-12.29033054714091
 30
0.0000000000000043
 10
-37.13532906678665
 20
-12.29081889821464
 30
0.0000000000000043
 10
-37.16308955516979
 20
-12.29482166245361
 30
0.0000000000000043
 10
-37.19093216708643
 20
-12.30136899330319
 30
0.0000000000000043
 10
-37.21856608283451
 20
-12.3108012186749
 30
0.0000000000000043
 10
-37.2456755354051
 20
-12.32312434419691
 30
0.0000000000000043
 10
-37.27192251894667
 20
-12.33839314924808
 30
0.0000000000000043
 10
-37.29695017386257
 20
-12.35659934844261
 30
0.0000000000000043
 10
-37.32024413251565
 20
-12.3775681075258
 30
0.0000000000000043
 10
-37.34121351249996
 20
-12.40086314736982
 30
0.0000000000000043
 10
-37.35942126126065
 20
-12.42589412894995
 30
0.0000000000000043
 10
-37.3746903054307
 20
-12.45214347403635
 30
0.0000000000000042
 10
-37.38701272385697
 20
-12.47925403936279
 30
0.0000000000000042
 10
-37.3964436905535
 20
-12.5068876227142
 30
0.0000000000000042
 10
-37.40298963324858
 20
-12.53472834494642
 30
0.0000000000000042
 10
-37.40699122878141
 20
-12.56248535502345
 30
0.0000000000000042
 10
-37.40747941638801
 20
-12.58095255916123
 30
0.0000000000000042
 10
-37.40772094000204
 20
-12.59008893593273
 30
0.0000000000000042
  0
ENDSEC
  0
SECTION
  2
OBJECTS
  0
DICTIONARY
  5
A
330
0
100
AcDbDictionary
281
     1
  3
ACAD_COLOR
350
35
  3
ACAD_DETAILVIEWSTYLE
350
1DF
  3
ACAD_GROUP
350
33
  3
ACAD_LAYOUT
350
26
  3
ACAD_MATERIAL
350
D
  3
ACAD_MLEADERSTYLE
350
1DE
  3
ACAD_MLINESTYLE
350
1E
  3
ACAD_PLOTSETTINGS
350
34
  3
ACAD_PLOTSTYLENAME
350
B
  3
ACAD_SCALELIST
350
3D
  3
ACAD_SECTIONVIEWSTYLE
350
1E0
  3
ACAD_TABLESTYLE
350
1DD
  3
ACAD_VISUALSTYLE
350
36
  3
AcDbVariableDictionary
350
1DB
  0
DICTIONARY
  5
2
330
1
100
AcDbDictionary
280
     1
281
     1
  3
ACAD_LAYERSTATES
360
3
  3
ACLYDICTIONARY
360
4
  0
DICTIONARY
  5
8
330
7
100
AcDbDictionary
280
     1
281
     1
  3
ADSK_XREC_LAYER_RECONCILED
360
9
  0
DICTIONARY
  5
22
330
21
100
AcDbDictionary
280
     1
281
     1
  3
ACAD_SORTENTS
360
23
  0
DICTIONARY
  5
35
102
{ACAD_REACTORS
330
A
102
}
330
A
100
AcDbDictionary
281
     1
  0
DICTIONARY
  5
1DF
102
{ACAD_REACTORS
330
A
102
}
330
A
100
AcDbDictionary
281
     1
  0
DICTIONARY
  5
33
102
{ACAD_REACTORS
330
A
102
}
330
A
100
AcDbDictionary
281
     1
  0
DICTIONARY
  5
26
102
{ACAD_REACTORS
330
A
102
}
330
A
100
AcDbDictionary
281
     1
  3
Layout2
350
2F
  3
Model
350
27
  0
DICTIONARY
  5
D
102
{ACAD_REACTORS
330
A
102
}
330
A
100
AcDbDictionary
281
     1
  3
ByBlock
350
60
  3
ByLayer
350
19
  3
Global
350
E
  0
DICTIONARY
  5
1DE
102
{ACAD_REACTORS
330
A
102
}
330
A
100
AcDbDictionary
281
     1
  0
DICTIONARY
  5
1E
102
{ACAD_REACTORS
330
A
102
}
330
A
100
AcDbDictionary
281
     1
  3
Standard
350
1F
  0
DICTIONARY
  5
34
102
{ACAD_REACTORS
330
A
102
}
330
A
100
AcDbDictionary
281
     1
  0
ACDBDICTIONARYWDFLT
  5
B
102
{ACAD_REACTORS
330
A
102
}
330
A
100
AcDbDictionary
281
     1
  3
Normal
350
C
100
AcDbDictionaryWithDefault
340
C
  0
DICTIONARY
  5
3D
102
{ACAD_REACTORS
330
A
102
}
330
A
100
AcDbDictionary
281
     1
  3
*A1
350
4F
  3
*A10
350
58
  3
*A11
350
59
  3
*A12
350
5A
  3
*A13
350
5B
  3
*A14
350
5C
  3
*A15
350
5D
  3
*A16
350
5E
  3
*A17
350
5F
  3
*A2
350
50
  3
*A3
350
51
  3
*A4
350
52
  3
*A5
350
53
  3
*A6
350
54
  3
*A7
350
55
  3
*A8
350
56
  3
*A9
350
57
  0
DICTIONARY
  5
1E0
102
{ACAD_REACTORS
330
A
102
}
330
A
100
AcDbDictionary
281
     1
  0
DICTIONARY
  5
1DD
102
{ACAD_REACTORS
330
A
102
}
330
A
100
AcDbDictionary
281
     1
  0
DICTIONARY
  5
36
102
{ACAD_REACTORS
330
A
102
}
330
A
100
AcDbDictionary
281
     1
  3
2dWireframe
350
3A
  3
Realistic
350
37
  3
Wireframe
350
38
  0
DICTIONARY
  5
1DB
102
{ACAD_REACTORS
330
A
102
}
330
A
100
AcDbDictionary
281
     1
  3
CANNOSCALE
350
1DC
  0
DICTIONARY
  5
3
102
{ACAD_REACTORS
330
2
102
}
330
2
100
AcDbDictionary
281
     1
  0
DICTIONARY
  5
4
102
{ACAD_REACTORS
330
2
102
}
330
2
100
AcDbDictionary
281
     1
1001
ACAD
1000
All
  0
XRECORD
  5
9
102
{ACAD_REACTORS
330
8
102
}
330
8
100
AcDbXrecord
280
     1
290
     0
  0
SORTENTSTABLE
  5
23
102
{ACAD_REACTORS
330
22
102
}
330
22
100
AcDbSortentsTable
330
21
  0
LAYOUT
  5
2F
102
{ACAD_REACTORS
330
26
102
}
330
26
100
AcDbPlotSettings
  1

  2
none_device
  4
ISO_A4_(210.00_x_297.00_MM)
  6

 40
7.5
 41
20.0
 42
7.5
 43
20.0
 44
210.0
 45
297.0
 46
0.0
 47
0.0
 48
0.0
 49
0.0
140
0.0
141
0.0
142
1.0
143
1.0
 70
   688
 72
     1
 73
     1
 74
     5
  7

 75
    16
 76
     0
 77
     2
 78
   300
147
1.0
148
0.0
149
0.0
100
AcDbLayout
  1
Layout2
 70
     1
 71
     1
 10
-20.0
 20
-7.5
 11
277.0
 21
202.5
 12
0.0
 22
0.0
 32
0.0
 14
15.0979381443299
 24
17.31672394043528
 34
0.0
 15
241.9020618556701
 25
177.6832760595647
 35
0.0
146
0.0
 13
0.0
 23
0.0
 33
0.0
 16
1.0
 26
0.0
 36
0.0
 17
0.0
 27
1.0
 37
0.0
 76
     0
330
2C
  0
LAYOUT
  5
27
102
{ACAD_REACTORS
330
26
102
}
102
{ACAD_XDICTIONARY
360
28
102
}
330
26
100
AcDbPlotSettings
  1

  2
none_device
  4
ISO_A4_(210.00_x_297.00_MM)
  6

 40
7.5
 41
20.0
 42
7.5
 43
20.0
 44
210.0
 45
297.0
 46
11.54999923706055
 47
-13.65000009536743
 48
0.0
 49
0.0
140
0.0
141
0.0
142
1.0
143
8.704084754739808
 70
 11952
 72
     1
 73
     0
 74
     0
  7

 75
     0
 76
     0
 77
     2
 78
   300
147
0.1148885871608098
148
0.0
149
0.0
100
AcDbLayout
  1
Model
 70
     1
 71
     0
 10
0.0
 20
0.0
 11
12.0
 21
9.0
 12
0.0
 22
0.0
 32
0.0
 14
1813.168022314897
 24
527.115773456012
 34
-76.97363477640508
 15
10381.3994357504
 25
5070.926163757304
 35
42.0000000000003
146
0.0
 13
0.0
 23
0.0
 33
0.0
 16
1.0
 26
0.0
 36
0.0
 17
0.0
 27
1.0
 37
0.0
 76
     0
330
21
331
39
1001
ACAD_PSEXT
1000
None
1000
None
1000
Not applicable
1000
The layout will not be plotted unless a new plotter configuration name is selected.
1070
     0
  0
MATERIAL
  5
60
102
{ACAD_REACTORS
330
D
102
}
102
{ACAD_XDICTIONARY
360
61
102
}
330
D
100
AcDbMaterial
  1
ByBlock
 72
     1
 73
     2
 78
     2
172
     2
176
     2
270
     2
274
     2
 94
       63
  0
MATERIAL
  5
19
102
{ACAD_REACTORS
330
D
102
}
102
{ACAD_XDICTIONARY
360
1A
102
}
330
D
100
AcDbMaterial
  1
ByLayer
 72
     1
 73
     2
 78
     2
172
     2
176
     2
270
     2
274
     2
 94
       63
  0
MATERIAL
  5
E
102
{ACAD_REACTORS
330
D
102
}
102
{ACAD_XDICTIONARY
360
F
102
}
330
D
100
AcDbMaterial
  1
Global
 72
     1
 73
     2
 43
0.0007999999797903
 43
0.0
 43
0.0
 43
0.0
 43
0.0
 43
0.0007999999797903
 43
0.0
 43
0.0
 43
0.0
 43
0.0
 43
1.0
 43
0.0
 43
0.0
 43
0.0
 43
0.0
 43
1.0
 78
     2
172
     2
 49
0.0007999999797903
 49
0.0
 49
0.0
 49
0.0
 49
0.0
 49
0.0007999999797903
 49
0.0
 49
0.0
 49
0.0
 49
0.0
 49
1.0
 49
0.0
 49
0.0
 49
0.0
 49
0.0
 49
1.0
176
     2
142
0.0007999999797903
142
0.0
142
0.0
142
0.0
142
0.0
142
0.0007999999797903
142
0.0
142
0.0
142
0.0
142
0.0
142
1.0
142
0.0
142
0.0
142
0.0
142
0.0
142
1.0
270
     2
144
0.0007999999797903
144
0.0
144
0.0
144
0.0
144
0.0
144
0.0007999999797903
144
0.0
144
0.0
144
0.0
144
0.0
144
1.0
144
0.0
144
0.0
144
0.0
144
0.0
144
1.0
274
     2
 94
       63
1001
ACAD
1070
    -1
1070
     3
1070
     0
1000

1071
        0
1070
     0
  0
MLINESTYLE
  5
1F
102
{ACAD_REACTORS
330
1E
102
}
330
1E
100
AcDbMlineStyle
  2
STANDARD
 70
     0
  3

 62
   256
 51
90.0
 52
90.0
 71
     2
 49
0.5
 62
   256
  6
BYLAYER
 49
-0.5
 62
   256
  6
BYLAYER
  0
ACDBPLACEHOLDER
  5
C
102
{ACAD_REACTORS
330
B
102
}
330
B
  0
SCALE
  5
4F
102
{ACAD_REACTORS
330
3D
102
}
330
3D
100
AcDbScale
 70
     0
300
1:1
140
1.0
141
1.0
290
     1
  0
SCALE
  5
58
102
{ACAD_REACTORS
330
3D
102
}
330
3D
100
AcDbScale
 70
     0
300
1:40
140
1.0
141
40.0
290
     0
  0
SCALE
  5
59
102
{ACAD_REACTORS
330
3D
102
}
330
3D
100
AcDbScale
 70
     0
300
1:50
140
1.0
141
50.0
290
     0
  0
SCALE
  5
5A
102
{ACAD_REACTORS
330
3D
102
}
330
3D
100
AcDbScale
 70
     0
300
1:100
140
1.0
141
100.0
290
     0
  0
SCALE
  5
5B
102
{ACAD_REACTORS
330
3D
102
}
330
3D
100
AcDbScale
 70
     0
300
2:1
140
2.0
141
1.0
290
     0
  0
SCALE
  5
5C
102
{ACAD_REACTORS
330
3D
102
}
330
3D
100
AcDbScale
 70
     0
300
4:1
140
4.0
141
1.0
290
     0
  0
SCALE
  5
5D
102
{ACAD_REACTORS
330
3D
102
}
330
3D
100
AcDbScale
 70
     0
300
8:1
140
8.0
141
1.0
290
     0
  0
SCALE
  5
5E
102
{ACAD_REACTORS
330
3D
102
}
330
3D
100
AcDbScale
 70
     0
300
10:1
140
10.0
141
1.0
290
     0
  0
SCALE
  5
5F
102
{ACAD_REACTORS
330
3D
102
}
330
3D
100
AcDbScale
 70
     0
300
100:1
140
100.0
141
1.0
290
     0
  0
SCALE
  5
50
102
{ACAD_REACTORS
330
3D
102
}
330
3D
100
AcDbScale
 70
     0
300
1:2
140
1.0
141
2.0
290
     0
  0
SCALE
  5
51
102
{ACAD_REACTORS
330
3D
102
}
330
3D
100
AcDbScale
 70
     0
300
1:4
140
1.0
141
4.0
290
     0
  0
SCALE
  5
52
102
{ACAD_REACTORS
330
3D
102
}
330
3D
100
AcDbScale
 70
     0
300
1:5
140
1.0
141
5.0
290
     0
  0
SCALE
  5
53
102
{ACAD_REACTORS
330
3D
102
}
330
3D
100
AcDbScale
 70
     0
300
1:8
140
1.0
141
8.0
290
     0
  0
SCALE
  5
54
102
{ACAD_REACTORS
330
3D
102
}
330
3D
100
AcDbScale
 70
     0
300
1:10
140
1.0
141
10.0
290
     0
  0
SCALE
  5
55
102
{ACAD_REACTORS
330
3D
102
}
330
3D
100
AcDbScale
 70
     0
300
1:16
140
1.0
141
16.0
290
     0
  0
SCALE
  5
56
102
{ACAD_REACTORS
330
3D
102
}
330
3D
100
AcDbScale
 70
     0
300
1:20
140
1.0
141
20.0
290
     0
  0
SCALE
  5
57
102
{ACAD_REACTORS
330
3D
102
}
330
3D
100
AcDbScale
 70
     0
300
1:30
140
1.0
141
30.0
290
     0
  0
VISUALSTYLE
  5
3A
102
{ACAD_REACTORS
330
36
102
}
330
36
100
AcDbVisualStyle
  2
2dWireframe
 70
     4
177
     3
291
     0
 70
    58
 90
        0
176
     1
 90
        2
176
     1
 90
        1
176
     1
 90
        0
176
     1
 40
0.6
176
     1
 40
30.0
176
     1
 62
     7
420
 16777215
176
     1
 90
        1
176
     1
 90
        4
176
     1
 62
     7
176
     1
 62
   257
176
     1
 90
        1
176
     1
 90
        1
176
     1
 40
1.0
176
     1
 90
        0
176
     1
 62
   257
176
     1
 40
1.0
176
     1
 90
        1
176
     1
 90
        6
176
     1
 90
        2
176
     1
 62
     7
176
     1
 90
        5
176
     1
 90
        0
176
     1
 90
        0
176
     1
290
     0
176
     1
 90
        1
176
     1
 40
0.0
176
     1
 90
        0
176
     1
290
     1
176
     1
290
     1
176
     1
290
     0
176
     1
290
     0
176
     1
290
     0
176
     1
290
     0
176
     1
290
     0
176
     1
290
     0
176
     1
290
     0
176
     1
 90
       50
176
     1
 40
0.0
176
     1
 40
1.0
176
     1
 90
        0
176
     1
 62
    18
420
        0
176
     1
 90
       50
176
     1
 90
        3
176
     1
 62
     5
420
      255
176
     1
290
     0
176
     1
 90
       50
176
     1
 90
       50
176
     1
 90
       50
176
     1
290
     0
176
     1
 90
       50
176
     1
 62
   256
176
     0
 40
1.0
176
     0
 90
        2
176
     1
  1
strokes_ogs.tif
176
     1
290
     0
176
     1
 40
1.0
176
     1
 40
1.0
176
     1
  0
VISUALSTYLE
  5
37
102
{ACAD_REACTORS
330
36
102
}
330
36
100
AcDbVisualStyle
  2
Realistic
 70
     8
177
     3
291
     0
 70
    58
 90
        2
176
     1
 90
        3
176
     1
 90
        0
176
     1
 90
        2
176
     1
 40
0.6
176
     1
 40
30.0
176
     1
 62
     7
420
 16777215
176
     1
 90
        0
176
     1
 90
        0
176
     1
 62
     7
176
     1
 62
   257
176
     1
 90
        1
176
     1
 90
        1
176
     1
 40
1.0
176
     1
 90
        8
176
     1
 62
   257
176
     1
 40
1.0
176
     1
 90
        1
176
     1
 90
        6
176
     1
 90
        2
176
     1
 62
     7
176
     1
 90
        3
176
     1
 90
        0
176
     1
 90
        0
176
     1
290
     0
176
     1
 90
       13
176
     1
 40
0.0
176
     1
 90
        0
176
     1
290
     0
176
     1
290
     1
176
     1
290
     1
176
     1
290
     0
176
     1
290
     0
176
     1
290
     0
176
     1
290
     0
176
     1
290
     0
176
     1
290
     0
176
     1
 90
       50
176
     1
 40
0.0
176
     1
 40
1.0
176
     1
 90
        0
176
     1
 62
    18
420
        0
176
     1
 90
       50
176
     1
 90
        3
176
     1
 62
     5
420
      255
176
     1
290
     0
176
     1
 90
       50
176
     1
 90
       50
176
     1
 90
       50
176
     1
290
     0
176
     1
 90
       50
176
     1
 62
   256
176
     0
 40
1.0
176
     0
 90
        2
176
     1
  1
strokes_ogs.tif
176
     1
290
     0
176
     1
 40
1.0
176
     1
 40
1.0
176
     1
  0
VISUALSTYLE
  5
38
102
{ACAD_REACTORS
330
36
102
}
330
36
100
AcDbVisualStyle
  2
Wireframe
 70
     5
177
     3
291
     0
 70
    58
 90
        0
176
     1
 90
        2
176
     1
 90
        0
176
     1
 90
        0
176
     1
 40
0.6
176
     1
 40
30.0
176
     1
 62
     7
420
 16777215
176
     1
 90
        1
176
     1
 90
        4
176
     1
 62
     7
176
     1
 62
   257
176
     1
 90
        1
176
     1
 90
        1
176
     1
 40
1.0
176
     1
 90
        0
176
     1
 62
   257
176
     1
 40
1.0
176
     1
 90
        1
176
     1
 90
        6
176
     1
 90
        2
176
     1
 62
     7
176
     1
 90
        3
176
     1
 90
        0
176
     1
 90
        0
176
     1
290
     0
176
     1
 90
        1
176
     1
 40
0.0
176
     1
 90
        0
176
     1
290
     0
176
     1
290
     1
176
     1
290
     1
176
     1
290
     0
176
     1
290
     0
176
     1
290
     0
176
     1
290
     0
176
     1
290
     0
176
     1
290
     0
176
     1
 90
       50
176
     1
 40
0.0
176
     1
 40
1.0
176
     1
 90
        0
176
     1
 62
    18
420
        0
176
     1
 90
       50
176
     1
 90
        3
176
     1
 62
     5
420
      255
176
     1
290
     0
176
     1
 90
       50
176
     1
 90
       50
176
     1
 90
       50
176
     1
290
     0
176
     1
 90
       50
176
     1
 62
   256
176
     0
 40
1.0
176
     0
 90
        2
176
     1
  1
strokes_ogs.tif
176
     1
290
     0
176
     1
 40
1.0
176
     1
 40
1.0
176
     1
  0
DICTIONARYVAR
  5
1DC
102
{ACAD_REACTORS
330
1DB
102
}
330
1DB
100
DictionaryVariables
280
     0
  1
1:1
  0
DICTIONARY
  5
28
330
27
100
AcDbDictionary
280
     1
281
     1
  3
AcPublish_PlotSettingsOverride
360
29
  0
DICTIONARY
  5
61
330
60
100
AcDbDictionary
280
     1
281
     1
  3
FBXASSET
360
62
  0
DICTIONARY
  5
1A
330
19
100
AcDbDictionary
280
     1
281
     1
  3
FBXASSET
360
1B
  0
DICTIONARY
  5
F
330
E
100
AcDbDictionary
280
     1
281
     1
  3
FBXASSET
360
10
  0
PLOTSETTINGS
  5
29
102
{ACAD_REACTORS
330
28
330
26
102
}
330
28
100
AcDbPlotSettings
  1

  2
none_device
  4
ISO_A4_(210.00_x_297.00_MM)
  6

 40
7.5
 41
20.0
 42
7.5
 43
20.0
 44
210.0
 45
297.0
 46
11.54999923706055
 47
-13.65000009536743
 48
-348.7833231427103
 49
1353.039955724496
140
142.6483611688727
141
1495.266804985138
142
1.0
143
8.704084754739808
 70
 11952
 72
     1
 73
     0
 74
     0
  7

 75
     0
 76
     0
 77
     2
 78
   300
147
0.1148885871608098
148
0.0
149
0.0
1001
ACAD_PSEXT
1000
<keine>
1000
<keine>
1000
Nicht anwendbar
1000
Das Layout wird erst geplottet, wenn ein neuer Plotter-Konfigurationsname ausgewählt wird.
1070
     0
1001
PLOTTRANSPARENCY
1071
        0
  0
XRECORD
  5
62
102
{ACAD_REACTORS
330
61
102
}
330
61
100
AcDbXrecord
280
     1
 70
     1
 90
429727718
  1
D62C5603-E3A1-4AEA-B7FB-FE5D8D0755AF
310
504B03040A0000080000CC70623B3DEE336E79000000790000001B0000006175746F6465736B2D64657369676E2D7061636B6167652E786D6C3C3F786D6C2076657273696F6E3D22312E302220656E636F64696E673D227574662D3822203F3E3C666F726D6174733E3C666F726D61743E687474703A2F2F736368656D612E
310
6175746F6465736B2E636F6D2F64657369676E2D7061636B6167652F323030393C2F666F726D61743E3C2F666F726D6174733E504B0304140006080800CC70623BD486FD9CA0000000F4000000130000005B436F6E74656E745F54797065735D2E786D6C7D8EC10E82300C865F65E91D8A1E8C310C0EEA1BF002731658846E
310
D98AC1B77784ABF1D8FE5FBFBF75BBCE937A534CCEB38643598122B6FEE978D0B0485F9C41B54DDD7D022595594E1A469170414C76A4D9A4D207E29CF43ECE46F218070CC6BECC4078ACAA135ACF422C856C0E68EA1BF5669944DDD7BCDE7B1F8E415D77AECB980613C2E4AC91FC167A2B244592486606FC29C8FD7F045B9A
310
EF7053A7E60B504B0304140006080800CC70623B853B8169EB0000007C01000008000000636F72652E786D6C8D90416EC3201045AF62CDB6C206821CC7C244919D9CA01740401C94182C03558F5F9C3852BBEB6A467FFE9B197D7EFC9E1EC5975982F5AE035262288C535E5B377690E21535501C055FBC8FBF6C503839990E
310
5619041F179FE64D52DE45E362569DD7661365082642A11EB9E920A89B99642953CC8E702F67A9EE7234257977194EC9EAE275C4EABCCF5EAD5940D4AC6F0E35A568B8F43562CD7046CD199FD07E60174276A7BE677B5EADB0E0D14EEFFB6A31321A0D82627C4084204C3F096B71DD52F6819B16635EADF63F509AF53FA164
310
5DDCD1EDDD17164090FCC8732078B56691CB33A85CD7DCC40F504B0304140006080800CC70623B55019EA25F0000007C00000007000000636E782E786D6C4DCB3B0E80201045D1AD90E915ED2CF8AC45050C11660C8261F98AB1B07AC9C97D42D718D865D3E909258CFD00CCE24AC6E326A164D74DC0B4128928FF32603847
310
2BA13128B1252AC747C6BAB984FC68F0B87FE8960A5C09FE86CFB69FBA01504B0304140006080800CC70623BDBABAAF470010000D40300000C0000006662782F636F72652E786D6CC553D16E823014FD95A6AF4B694182CC941A83FA05FB810A9511A125A5257EFE2E82712ECEB8A7F100CD39F7F69E734AF9FADC366850B6
310
AF8DCE7018308C942E4C59EB2AC3DE1D498AD15A706B8CFB56869196ADCAF00863C12B6B7C374385D14E6907A836A59A41D9F7CA615434B0C8705F7CAA5606D23BA8E84F41278B93AC54100640439DE0BDB320004D43C63716C7C399D30917DCFBBA9CD9BA8469F5B156168B24CED3F7248AC8769F27244EB73B92EED8862C
310
B7F13E0C179B3C8F979C8ECD82BBBABDAA2BAC924E9558448CBD9330242CFA08E3154B5651FCC6D215639C8EE5774DBE2B5F6CF2B5768B68963BB5F5588420E442FC700B1139D4CB01F450C1E918227C2E09DF070D8140C84E1E9AAB8F1340832A9CB13130A5F1376A908D57309505ECF2A0DF179C4E9D30F5B239B87E3823
310
7A79C6F31DE1A8A5AEC08474B03C7837EAE4938639B44E5932B833D2C6B6B279CDC613877FA26EE21F4A2A4C63EC7F29A2F301D1F9F7A0E37D145F504B0304140006080800CC70623B9C113CC27E0000009D0000000B0000006662782F636E782E786D6C4DCCDF0A83201C86E15B91DFB94BFB330DD428C8FB886521330DA7
310
6397BF1A1DECE883878F57749FCDA1B7892F1BBC047A23808C7F84D9FA55424E0BE6803A256208E9EF06C84F9B91703228B1C690F78B66B34CD9A5439DF5CF0BFBF65E35BCA1B8D6A5C6F540381E886698B5741C695F9503EBA150A2F8958E3DC3EA0B504B0304140006080800CC70623B7DF2F77C2A010000120200003100
310
00006662782F41393633353835312D344632462D344230382D423046372D3739314545314133324237412F636F72652E786D6C8D51DB8EC22014FC15C2939B0D2DB4B45643319AE817EC0F6041255A68B86CFCFC856D4D76DF7CE190393373060EDB3DC707F856CE6B6B7A480A0C81328395DA5C7B18C3057510EC3873D686
310
3F34088C18550F330C39BB3A1BA7051AAC09CA84841A2BD5020AEF55806078A44B0FFD7053A328440C89E1EFC52486BBB8AA8214A99D789CF9E05200300FC927E4FB4D5B375D43103D5527440FB843077C5AA3F5861C8F645F5787F59E95B390B318B55CE45AA638FAA2957BD7248B390B7A7CC51F9C124149C82B8C378810
310
84AB2F42B7B8DD56F413775B8C5999E9FF4471926F8AA236A1AE96B8B3CC434E5839373893369E1FAF30EA395917409EB7F26AF8801C171837A4A6AC9C89E9F9C9B1A58BA30FD6A5EF5DDDCF894B9AD9B6A59C957943A9FCAE2FD5BC4DFE03504B0304140006080800CC70623BAD7543B64E01000033030000300000006662
310
782F41393633353835312D344632462D344230382D423046372D3739314545314133324237412F636E782E786D6CD593CD6EC32010845F0571AD6CE3D48AD20813A9873E410FBD12D82434182C7EAAE6EDBB2424CD25871E7B41D6EC30B3FA84F9E67BB2E40B4234DE8DB46F1925E094D7C6ED479AD3AE5951B2113C789FEE
310
6C943839C1488B4C05DF079FE72A69D8C96C13AAD6B8631503449F83828872B949AC57D26200B826A308D316B4064D6E46FCDA41C05550DC9E483A00797BFD207EFB092A45DE9514C1BBD22178396BD39D891265658C238DEA00936C654E5E433CB65A26D9F6EDB5EBC14EBF49A45CB856E66048291F6939A9A81BB5C89177
310
38143CA680F4AA299D66A042CEB3354A2684DC9D8D178FE0D9B8B41CAAD720F880EE7EF93C0C18769E099ECC04D5A102C8049A8A05632F4DDF376CF1DE0F6BB65C2F8627B65A33C6BB62177CEBBDAD973006829F89F22E814B54F4BC2BE347F8AA8F681390B50FA73F804400B5F542E796F19FF974E7F78DB802FE05E20750
310
4B0304140006080800CC70623BE75B7789680500003C100000340000006662782F41393633353835312D344632462D344230382D423046372D3739314545314133324237412F6F626A656374732E786D6CAD575B8F9B3818FD2B887D06C22499CB8AA1CA655245D5B455A356FB305264C061D8018C6C3393D95FBFC7600890
310
A4CD5EF210B0B1BFEBF98E3F7B1FF6596ABC522E1296DF9BAE3D320D9A872C4AF2F8DE2CE5CEBA358D0FBEC719939D65A691938CDE9B6ADAF4BD98B3B2D05311DD91329583D9D5FC0F438434A7A611A644887B5384CF34233629258BA878B12322891DEFF6B66BD70BFB62634E8AE781D082709A4B588AF91C528CDA28B73F
310
1C998EEF39EABBEFA97FBD6A7C7E9553F9D3D79FE442923C3C523610337627CB87ABE99D359D4CC6D6E4FACAB5E6ABF9D2726FC6A3C5F56271377BB88362213924694B38DD99FE47C48627A1E7D49F5A8BB5E1A74C0A599ED3B0F21F1E56366B89112D681E218F0915D0D6F17AD41FBA2A369DCF6335D62ABBD39779D5DDD1
310
11D4D8DE3CBB96B2E04FB8202E41051754A1AA8E8F76B4C6DFE810B580B1547F4B84911149794252234D024EF8BBE963A95AE27B3D310A9D5C215C7960FAEE415ED75694C6AFB17BCACA5D99A60A9AA65F217B0BFC53292ACB92BF283FAD0D3621576592CB5BED907C2FA8E9DF794E35E97BEA31BED21FEB401ABB94C44839
310
DCACBF0E1C5DA8DA5B2F4DFFD32AD86F543D9E565E7056502E157C00AD2671CD534549AB752FCA9CDA00677A313F04E51B22FF19E57B300579E3C97EB29F682D92935CEC18CF901B7B54FD8C51F362B56FC72FE0B3C1EAE335EDCCBF5AEC39ADB17DC238973F804BA5E6F6BFE7AF1FB32E523BE9F3BD571418E3631DCA4D48
310
5250CF639223210A9446CA30052EDF057BD35F8329C1ECD84552BF0DC8D18BE7BCE23BFE6BD960AB4A7DE79923A103BEBD80F911CBAA2C60DB19B01CF164A5583B772EE6D3FFA56666CBCDA74DC97724A48F9A58967497E489C4D979006FD7A05E227A1EBDD0F737C623387A9C844D3709995625106D157315F8B8392CD4E0
310
A0B9A720C4BE9829CEF37EA1E13111214D53925356365ADA634861B52519DD27A00AEB808EAF0628E6F435519D446F45CF2C9CF5214F0A15B2F6D06B79DA3EE3CBF7F56780D2F4E7EF73A0F5E5B02A38D07DC852C6B7C1FBB6664213E0C39E3EBA7FF4E1AD23EA2829407C85E586727488B751B2DB9502BC7B228A3FD68B6E
310
A65A22397E690AA8D158D7E404EC8CDA235CC3B7D1898680131CEC2CDF2638C65196279577750F15884AEE19F94199155B92B13297978469D4F8D358DF0AEF7631E28DC8F0D9F437D5D39A83B2231A1D52D543813A824EF8D44BCFF2FA6A31BD1E8DAD87F1CCB526B3879935BF59CDADD5C37479BB1CDD4CA7B3556B516589
310
EF352754B706114D9C885EC9131DE6EFEB43D99AFE2391C2F958179413D7CFEF6B1B6DB1E7600F00DE6E5C67454A339A4BA2E0FBA85ED26F045D454F463DBFCE484C2F90F2E5E3666003662ED8F755951A7D1BECD5B30B550B2785C8E7320B7292A4838DDA71BBC863ED7613CAF659337A3354231D4FF4A182A54904C2898C
310
98B28C4AD0CE056CCF332A80986E571EE9DBC305BB5FEB7E509220A58D25CF042D712A806AC0AD0C657FDEF80D2D9CEAA2EE4D1C76F60BFE74219A06527D6F82DF6412526107381E55E353090704D085B52408A8913C4ED159D79BDA71BB4BC506F4831350EB6F975CD22D69BF7AC49B91A2C0A9DDA3D5CA36AD20FC478E37
310
E61844E2352865EBCB61A275A65283CAAA9DD27703B4102F5AF51EF5F573B75CBB5AD38BC845F7A49F82A0966A49C2E3EA5EA0ECD326CD965F1DB402C6FA8B51A4658C5C5E2EC9E214602E55810345408596591009A82E7E7FFACA19EEA299B14A0081A705CB3296EBC14CDF658DCD336EA6D1136881AAEB87B81AB9EE53D5
310
F5EB8BC8362082DA24122F98680A4E7930C01A0079749CEA14382A0783E5EBA5A10F8C098456A03D6A4AEB6BB881E2513747552A5DB22C7EDAF83BD5528081A365F7FF06504B0304140006080000CC70623B000000000000000000000000350000006662782F41393633353835312D344632462D344230382D423046372D37
310
39314545314133324237412F76657274696365732E62696E504B0304140006080800CC70623BF270F1330600000004000000360000006662782F41393633353835312D344632462D344230382D423046372D3739314545314133324237412F747269616E676C65732E62696E636660600000504B0304140006080000CC7062
310
3B000000000000000000000000370000006662782F41393633353835312D344632462D344230382D423046372D3739314545314133324237412F617474726962757465732E62696E504B0304140006080800CC70623B08DA0BD19000000041010000360000006662782F41393633353835312D344632462D344230382D4230
310
46372D3739314545314133324237412F6469726563746F72792E786D6C858F410AC3201045AF22B36F53E9A60B35CBEEBAE80D244E44489C6234F4F835464A48035D0DF398FF9F8AF63D0E6CC63039F212F8F9020C7D47C6792B21C5FE7403D62A1188E2E60C98D7234A5830286103A55745067B9D86B8A3CF9C7F90C11DE6
310
07FB144396D7B6A82D282E9A152AD114D5EF2CB866EEE831B8EEA07A7BB5A8D7D61A2BAAEB7FD5F70921FF497D00504B0304140006080800CC70623BEDD1DC58FD000000A00100003B0000006662782F41393633353835312D344632462D344230382D423046372D3739314545314133324237412F7265736F75726365732F
310
636F72652E786D6C8D504B6E833010BD0A9A6D65B00922041947112427E8052C33A156828DFCA97AFC9A40A576D7CDCCE87D344F8F9FBFE667F689CE6B6B3A6039850C8DB2A336530731DC4903D95970676DF82583CCC8193B5861107C72362E3BA4AC096842428D1D7107A5F7182053CF7474E0D507CE32973124857FE48B
310
540F3961CEF244279DE03EB81420DB9EAC1384436FA353E879B1B182C7A8C75DA3C7F453DF353A1075D537A7BA6464B8F535A99AE14A9A2BBD90E350DD183B5CFABE3AF262350B1EF4FC9351399401471025A527C218A1E53BAB5A5AB765F5469B96525EACF23FA6B88CFF34456DC2A1DCE36E360F82A5202F42F062ED2BAD
310
579969AFDD8A6F504B010214000A0000080000CC70623B3DEE336E79000000790000001B00000000000000000000000000000000006175746F6465736B2D64657369676E2D7061636B6167652E786D6C504B01021400140006080800CC70623BD486FD9CA0000000F40000001300000000000000000000000000B20000005B
310
436F6E74656E745F54797065735D2E786D6C504B01021400140006080800CC70623B853B8169EB0000007C010000080000000000000000000000000083010000636F72652E786D6C504B01021400140006080800CC70623B55019EA25F0000007C000000070000000000000000000000000094020000636E782E786D6C504B
310
01021400140006080800CC70623BDBABAAF470010000D40300000C00000000000000000000000000180300006662782F636F72652E786D6C504B01021400140006080800CC70623B9C113CC27E0000009D0000000B00000000000000000000000000B20400006662782F636E782E786D6C504B01021400140006080800CC70
310
623B7DF2F77C2A010000120200003100000000000000000000000000590500006662782F41393633353835312D344632462D344230382D423046372D3739314545314133324237412F636F72652E786D6C504B01021400140006080800CC70623BAD7543B64E010000330300003000000000000000000000000000D2060000
310
6662782F41393633353835312D344632462D344230382D423046372D3739314545314133324237412F636E782E786D6C504B01021400140006080800CC70623BE75B7789680500003C10000034000000000000000000000000006E0800006662782F41393633353835312D344632462D344230382D423046372D3739314545
310
314133324237412F6F626A656374732E786D6C504B01021400140006080000CC70623B0000000000000000000000003500000000000000000000000000280E00006662782F41393633353835312D344632462D344230382D423046372D3739314545314133324237412F76657274696365732E62696E504B01021400140006
310
080800CC70623BF270F133060000000400000036000000000000000000000000007B0E00006662782F41393633353835312D344632462D344230382D423046372D3739314545314133324237412F747269616E676C65732E62696E504B01021400140006080000CC70623B0000000000000000000000003700000000000000
310
000000000000D50E00006662782F41393633353835312D344632462D344230382D423046372D3739314545314133324237412F617474726962757465732E62696E504B01021400140006080800CC70623B08DA0BD1900000004101000036000000000000000000000000002A0F00006662782F41393633353835312D344632
310
462D344230382D423046372D3739314545314133324237412F6469726563746F72792E786D6C504B01021400140006080800CC70623BEDD1DC58FD000000A00100003B000000000000000000000000000E1000006662782F41393633353835312D344632462D344230382D423046372D3739314545314133324237412F7265
310
736F75726365732F636F72652E786D6C504B0506000000000E000E0080040000641100000000
  0
XRECORD
  5
1B
102
{ACAD_REACTORS
330
1A
102
}
330
1A
100
AcDbXrecord
280
     1
 70
     1
 90
429727718
  1
30362254-06B7-45E0-A893-8CFA70E3D6BC
310
504B03040A0000080000CC70623B3DEE336E79000000790000001B0000006175746F6465736B2D64657369676E2D7061636B6167652E786D6C3C3F786D6C2076657273696F6E3D22312E302220656E636F64696E673D227574662D3822203F3E3C666F726D6174733E3C666F726D61743E687474703A2F2F736368656D612E
310
6175746F6465736B2E636F6D2F64657369676E2D7061636B6167652F323030393C2F666F726D61743E3C2F666F726D6174733E504B0304140006080800CC70623BD486FD9CA0000000F4000000130000005B436F6E74656E745F54797065735D2E786D6C7D8EC10E82300C865F65E91D8A1E8C310C0EEA1BF002731658846E
310
D98AC1B77784ABF1D8FE5FBFBF75BBCE937A534CCEB38643598122B6FEE978D0B0485F9C41B54DDD7D022595594E1A469170414C76A4D9A4D207E29CF43ECE46F218070CC6BECC4078ACAA135ACF422C856C0E68EA1BF5669944DDD7BCDE7B1F8E415D77AECB980613C2E4AC91FC167A2B244592486606FC29C8FD7F045B9A
310
EF7053A7E60B504B0304140006080800CC70623B1EC5D7A3EB0000007C01000008000000636F72652E786D6C8D90416EC3201045AF82665B6103C6756C6122AB4D4ED00B204C5C94182C03558F5F9C3852BBEB6A467FFE9B197D71FC9E6FE8CBACC17AD7032D0820E3B41FAD9B7A48F1820F808E52ACDEC75F36404ECDA687
310
4D0629A6D5A76597B477D1B89855E747B38B2A041301E95B6E7A08FAD3CCAA50296647B8168BD2573599823EBB0CA76447F43862C7BCCF5EAC59410E4DDD9C7973C2755553CCCFA4C603E3040F1565ED3B1FDE4E432BCA0D9622DAF9795FAF464533826484B498524CD807E51D79ED187F21878E10516EF63F505AC67F42C9
310
BA58B1FDDD071640D2FCC87D2045B96591CB3DA85CB7DCE40F504B0304140006080800CC70623B55019EA25F0000007C00000007000000636E782E786D6C4DCB3B0E80201045D1AD90E915ED2CF8AC45050C11660C8261F98AB1B07AC9C97D42D718D865D3E909258CFD00CCE24AC6E326A164D74DC0B4128928FF32603847
310
2BA13128B1252AC747C6BAB984FC68F0B87FE8960A5C09FE86CFB69FBA01504B0304140006080800CC70623B8C9102E971010000D40300000C0000006662782F636F72652E786D6CC5535B6E833010BC8AE5DF0A6C08340F1947A84D4ED00B38C6A128602363A31CBFCB234A53A551FA553EC09AD9F5CE8C31DB9E9B1AF5CA
310
7695D1198E428A91D2D214952E33ECDD315861B4E5CC1AE3BE9561A445A3323CC098B3D21ADFCE9034DA29ED00D5A6503328BA4E398C640D8B0C77F253352214DE4145770A5B214FA2546114020D759C75CE8200340D19DE981F0F6746269C33EFAB6266AB02A655C74A59CCF365BADC27CB5D902ED22848F6340DF238A141
310
BE88E2F57B92BFEDF23523433367AE6A2EEAA455C2A902F398D2751045018D3FA264435F3771F242571B4A1919CA6F9A7C5B3CD9E42BED16F12C776AEB308F40C848FC700B1139D4891EF410CEC810227CC6846F8386402064270EF5C5C709A05E49676C024C61FC95EA45ED154CA5211D1FF4FB8291A913A68E9B83EBBB33
310
E2A7673CDE118E5AE8124C0807CB8377834E366998436B950D7A7746DAD846D4CFD978E0F04FD455FC5D49D2D4C6FE9722321F10997F0F32DC47FE05504B0304140006080800CC70623BFFEA85907E0000009D0000000B0000006662782F636E782E786D6C4DCCD10A83201886E15B91FFDC95D95A811AB6F23E625948A6C3
310
E9D8E5AF46073BFAE0E1E365ED67B3E8ADC3CB78C7815C7240DA3DFC64DCC221C519D7805AC182F7F1EF06C88D9BE6703008B6049F9E274D7A1E938DBB5AE3D6131B2589BA0D3D965551E0B2EA732C9B9A624AAEB41E3A557677029960D9AFB4EF11165F504B0304140006080800CC70623B4FEEA4082C0100001202000031
310
0000006662782F39464131463745442D413632322D343644302D413938332D3331353338454246344243312F636F72652E786D6C8D515B6EC32010BC0AE2AB55850DD871ED0813254D72825EC00192A2C460F1A872FC42ED48ED5F7E00CDCECCCEB26C731F6FE05B39AFADE921293004CA082BB5B9F43086336A21D870E6AC
310
0D7F68109861543DCC30E4ECE26C9C164858139409093556AA051CBC570102714B8F1E7AF1A5C6A11862480C7F2DA6415C878B2A4891CA89C7990F2E050073937C42DE1DB7E4F87ED8A36D4329AA9B3D46DBAEAD504556557BD81DEBDD0761E52CE42C462D17B996298E3E6BE59E35C962CE821E1FF18553435012728A7187
310
0841987E927A8D9B35ADDF70BBC6989599FE4F1427F9A4286A132ABAC49D651EF234CD5CE04CDA78BA3DC2A8FB645D00B9DF8B57E215725C60BCA2A463E54C4CE327C7A65E1C7DB02E7DEFCBF594B864C5CA6CDBD49C957943E9FA5D5FBAF336F90F504B0304140006080800CC70623BAD7543B64E01000033030000300000
310
006662782F39464131463745442D413632322D343644302D413938332D3331353338454246344243312F636E782E786D6CD593CD6EC32010845F0571AD6CE3D48AD20813A9873E410FBD12D82434182C7EAAE6EDBB2424CD25871E7B41D6EC30B3FA84F9E67BB2E40B4234DE8DB46F1925E094D7C6ED479AD3AE5951B2113C
310
789FEE6C943839C1488B4C05DF079FE72A69D8C96C13AAD6B8631503449F83828872B949AC57D26200B826A308D316B4064D6E46FCDA41C05550DC9E483A00797BFD207EFB092A45DE9514C1BBD22178396BD39D891265658C238DEA00936C654E5E433CB65A26D9F6EDB5EBC14EBF49A45CB856E66048291F6939A9A81BB5
310
C8917738143CA680F4AA299D66A042CEB3354A2684DC9D8D178FE0D9B8B41CAAD720F880EE7EF93C0C18769E099ECC04D5A102C8049A8A05632F4DDF376CF1DE0F6BB65C2F8627B65A33C6BB62177CEBBDAD973006829F89F22E814B54F4BC2BE347F8AA8F681390B50FA73F804400B5F542E796F19FF974E7F78DB802FE05
310
E207504B0304140006080800CC70623B16AB87BA640500003C100000340000006662782F39464131463745442D413632322D343644302D413938332D3331353338454246344243312F6F626A656374732E786D6CAD575B6FA33818FD2B887DE6924B3BED8A326A92B68A663B534DD4D13E548A0C38942D60649B369D5FBFC7
310
600890A493BDE42160637FD7F31D7FF63E6FB3D478A55C242CBF3247B66B1A340F5994E4F19559CA8D75611A9F7D8F33263BCB4C232719BD32D5B4E97B316765A1A722BA21652A07B3B7B33F0D11D29C9A46981221AE4C113ED38CD8A4942CA2E2C58E882476BCD9DA23BB5ED8171B73523C0F841684D35CC252CCE79062D4
310
468DFA43D7747CCF51DF7D4FFDEB5593E3AB9CCA9FBEFE241792E4E19EB28198C968BAB8199F5D5A67D3E9C49A9E8F47D6EC76B6B0469F26EEFC7C3EBFBCBEB98462213924694B38DD98FE1D62C393D073EA4FADC5DAF04326852CCF6958F90F0F2B9BB5C48816348F90C7840A68EB78EDF68723159BCEE7891A6B95DDE9D3
310
BCEAEEE8086A6C6F9E5D4B59F0175C10A7A0820BAA5055C7473B5AE3CFDD452D602CD5DF12616444529E90D448938013FE6EFA58AA96F85E4F8C42275708571E98FE6827AF6B2B4AE3D7D83D64E5A64C53054DD3AF90BD06FEA9149565C94FCA0F6B834DC85599E4F2423B24DF0B6AFA979E534DFA9E7A4CC6FA631D486393
310
921829879BF5D781A373557BCB85E97FB90DB62B558F8795179C15944B051F40AB495CF35451D26A4727654E6D8033BD98EF82F21D91FF8AF2DD9982BCF1643BDD4EB516C9492E368C67C88DED563FC36D5EACF66DFF057C3658BDBFA69DF9578B3DA735B64F18C7F20770A9D45CFCF7FCF563D6456A277DBEF78A02637CA2
310
43B90A490AEAB94F72244481D24819A6C0E59B606BFA4B3025981DBB48EAB701D97BF19C577CC77F2D1B6C55A9EF3C732474C0B727303F625995056C3B02963D9EAC146BE78EC5FCEC7FA999EBC5EACBAAE41B12D27B4D2C0BBA49F244E2ECDC81B76B502F113D8F5EE8FB1BE3111CDD4FC2AA9B844CAB1288B68AB90A7CDC
310
1C166AB0D3DC5310625FCC14E779BFD0709F8890A629C9292B1B2DED31A4B0DA928CEE135085754027E3018A397D4D5427D15BD1330B677DC8934285AC3DF45A9EB68FF8F2B8FC0A509AFEECFD0FF2DE25CC6047F7214B195F07EFEB9A094D800F7BFAE8FED187B78EA8A3A400F115961BCAD1215E47C966530AF0EE8128FE
310
58CEBB996A8964FFA529A046635D9353B0336A8F700DDF46271A024E70B0B37C9DE01847591E54DED53D54202AB947E4076556AC49C6CA5C9E1226B7F1A7B1BE15DEED62C41B91E1B3E9AFAAA735036547343A925075041DF0A9979E893B391F8FCFA6967B3EFB644DCF6E5CEBFAE272625DCC6FAF3FB93793C5F90CE1EF57
310
407342756B10D1C489E8953CD1617E5CEECAD6F4EF8914CE5D5D504E5C3F1F9736DA62CFC11E00BCDDB8CC8A9466349744C1F75EBDA4DF09BA8A9E8C7A7E9991989E20E5DBDD6A6003664ED8F7A04A8DBE0DF6EAD9B9AA858342E47399053949D2C146EDB85DE4B176BB0965FBAC19BD19AA918E27FA50C1D22402E144464C
310
59462568E704B6E71915404CB72B8FF4EDE184DDAF753F284990D2C6926782963815403548A70C657FDEF80D2D9CEAA2AE4C1C76F60BFE74219A06527D6582DF6412526107381E55E353090704D085B52408D0933C4ED159D79BDA71BB4BC506F4831350EB6F979CD22D69BF7AC49B91A2C0A9DDA3D5CA36AD20FC478E37E6
310
1844E2352865EBCB6EA275A652E3836BE04EFB400BF1A2556F515F1FBB35B2AB35BD889C744FFA1004B5544B121E57F70215746DD2F5E2C1412B602CBF19455AC6C8E5E9922C4E01E65215385004546899059180EAFCF7A707CE7017CD8CDB0410789AB32C63B91E5CEBBBACB17AC6CD347A022D5075FD106377347AAABA7E
310
7D11590744509B44E205134DC1290F06580320F78E537D3D73540E06CB970B431F185308AD40BBD794D6D77003C5A36E8EAA54BA64597CD8F83BD552A080A365F7FF06504B0304140006080000CC70623B000000000000000000000000350000006662782F39464131463745442D413632322D343644302D413938332D3331
310
353338454246344243312F76657274696365732E62696E504B0304140006080800CC70623BF270F1330600000004000000360000006662782F39464131463745442D413632322D343644302D413938332D3331353338454246344243312F747269616E676C65732E62696E636660600000504B0304140006080000CC70623B
310
000000000000000000000000370000006662782F39464131463745442D413632322D343644302D413938332D3331353338454246344243312F617474726962757465732E62696E504B0304140006080800CC70623B08DA0BD19000000041010000360000006662782F39464131463745442D413632322D343644302D413938
310
332D3331353338454246344243312F6469726563746F72792E786D6C858F410AC3201045AF22B36F53E9A60B35CBEEBAE80D244E44489C6234F4F835464A48035D0DF398FF9F8AF63D0E6CC63039F212F8F9020C7D47C6792B21C5FE7403D62A1188E2E60C98D7234A5830286103A55745067B9D86B8A3CF9C7F90C11DE607
310
FB144396D7B6A82D282E9A152AD114D5EF2CB866EEE831B8EEA07A7BB5A8D7D61A2BAAEB7FD5F70921FF497D00504B0304140006080800CC70623B0D6EF93BFE000000A00100003B0000006662782F39464131463745442D413632322D343644302D413938332D3331353338454246344243312F7265736F75726365732F63
310
6F72652E786D6C8D50596E833010BD0A9ADFCA60B334011947A8694ED00B586642AC041B79A97AFC9A40A5F6AF3F33A3B7689E1E3F7DCD8FEC139DD7D6F4C0720A191A65476DA61E62B892236427C19DB5E1970C322367EC618541F0C9D9B8EC90B226A009093576C41D94DE63804C3DD2D18357379C652E63480A7FCF17A9
310
EE72C29CE5894E3AC17D702940B63D59270887DE46A7D0F36263058F518FBB468FE9A7BE6A7420864373B8D4873369AA8691FA421B3294352543C5CAF65C0F6FEF43CB8BD52C78D0F34F46E550061C419494B6843142CB0F5677F4B52BEB177AEC28E5C52AFF638ACBF84F53D42654E51E77B379102C05791282176B5F693D
310
CB4C7BED567C03504B010214000A0000080000CC70623B3DEE336E79000000790000001B00000000000000000000000000000000006175746F6465736B2D64657369676E2D7061636B6167652E786D6C504B01021400140006080800CC70623BD486FD9CA0000000F40000001300000000000000000000000000B20000005B
310
436F6E74656E745F54797065735D2E786D6C504B01021400140006080800CC70623B1EC5D7A3EB0000007C010000080000000000000000000000000083010000636F72652E786D6C504B01021400140006080800CC70623B55019EA25F0000007C000000070000000000000000000000000094020000636E782E786D6C504B
310
01021400140006080800CC70623B8C9102E971010000D40300000C00000000000000000000000000180300006662782F636F72652E786D6C504B01021400140006080800CC70623BFFEA85907E0000009D0000000B00000000000000000000000000B30400006662782F636E782E786D6C504B01021400140006080800CC70
310
623B4FEEA4082C0100001202000031000000000000000000000000005A0500006662782F39464131463745442D413632322D343644302D413938332D3331353338454246344243312F636F72652E786D6C504B01021400140006080800CC70623BAD7543B64E010000330300003000000000000000000000000000D5060000
310
6662782F39464131463745442D413632322D343644302D413938332D3331353338454246344243312F636E782E786D6C504B01021400140006080800CC70623B16AB87BA640500003C1000003400000000000000000000000000710800006662782F39464131463745442D413632322D343644302D413938332D3331353338
310
454246344243312F6F626A656374732E786D6C504B01021400140006080000CC70623B0000000000000000000000003500000000000000000000000000270E00006662782F39464131463745442D413632322D343644302D413938332D3331353338454246344243312F76657274696365732E62696E504B01021400140006
310
080800CC70623BF270F133060000000400000036000000000000000000000000007A0E00006662782F39464131463745442D413632322D343644302D413938332D3331353338454246344243312F747269616E676C65732E62696E504B01021400140006080000CC70623B0000000000000000000000003700000000000000
310
000000000000D40E00006662782F39464131463745442D413632322D343644302D413938332D3331353338454246344243312F617474726962757465732E62696E504B01021400140006080800CC70623B08DA0BD190000000410100003600000000000000000000000000290F00006662782F39464131463745442D413632
310
322D343644302D413938332D3331353338454246344243312F6469726563746F72792E786D6C504B01021400140006080800CC70623B0D6EF93BFE000000A00100003B000000000000000000000000000D1000006662782F39464131463745442D413632322D343644302D413938332D3331353338454246344243312F7265
310
736F75726365732F636F72652E786D6C504B0506000000000E000E0080040000641100000000
  0
XRECORD
  5
10
102
{ACAD_REACTORS
330
F
102
}
330
F
100
AcDbXrecord
280
     1
 70
     0
 90
1673772943
  1
ECE7A1D2-D628-4531-984C-D00F80459256
310
504B03040A0000080000CC70623B3DEE336E79000000790000001B0000006175746F6465736B2D64657369676E2D7061636B6167652E786D6C3C3F786D6C2076657273696F6E3D22312E302220656E636F64696E673D227574662D3822203F3E3C666F726D6174733E3C666F726D61743E687474703A2F2F736368656D612E
310
6175746F6465736B2E636F6D2F64657369676E2D7061636B6167652F323030393C2F666F726D61743E3C2F666F726D6174733E504B0304140006080800CC70623BD486FD9CA0000000F4000000130000005B436F6E74656E745F54797065735D2E786D6C7D8EC10E82300C865F65E91D8A1E8C310C0EEA1BF002731658846E
310
D98AC1B77784ABF1D8FE5FBFBF75BBCE937A534CCEB38643598122B6FEE978D0B0485F9C41B54DDD7D022595594E1A469170414C76A4D9A4D207E29CF43ECE46F218070CC6BECC4078ACAA135ACF422C856C0E68EA1BF5669944DDD7BCDE7B1F8E415D77AECB980613C2E4AC91FC167A2B244592486606FC29C8FD7F045B9A
310
EF7053A7E60B504B0304140006080800CC70623BD9DDAED0EC0000007C01000008000000636F72652E786D6C8D90416EC3201045AF82665B61836D9CD8C2444DD39CA01740405C94182C03558F5F9C3852BBEB6A467FFE9B197D7EF89E6EE8CB2CC17A37002D0820E394D7D68D03A478C17B4007C117EFE32F1B20272733C0
310
2A83E0E3E2D3BC49CABB685CCCAAF3DA6CA20CC14440EA969B0182FA34932C648AD911AEC52CD5558EA6A0CF2EC329598D1E47ACCEFBECC59A050463A7EA5833865FEBDD0E37353BE3EE8DBDE3F6786A48D375FBF6CC78B9C282473B3DEFABC5C86834888A900E538A49F5419B9EB47DD5BC907D4F082F57FB1F28CDFA9F50
310
B22ED6D5F6EE030B20687EE43E10BC5CB3C8E51E54AE6B6EE207504B0304140006080800CC70623B55019EA25F0000007C00000007000000636E782E786D6C4DCB3B0E80201045D1AD90E915ED2CF8AC45050C11660C8261F98AB1B07AC9C97D42D718D865D3E909258CFD00CCE24AC6E326A164D74DC0B4128928FF326038
310
472BA13128B1252AC747C6BAB984FC68F0B87FE8960A5C09FE86CFB69FBA01504B0304140006080800CC70623BA24EB22D72010000D40300000C0000006662782F636F72652E786D6CC5535B6E833010BC8AE5DF0A6C5E49888CA3A6694ED00B38E05014B091B1518EDFE511A5A9D228FD2A1F60CDEC7A67C6986DCE4D8D7A
310
69BA4AAB0C073EC548AA5C17952A33ECECD15B61B4E1CC686DBF9561A44423333CC098B3D268D7CE50AE9595CA02AA74216750749DB418E5352C32DCE59FB211BE70162ABA93DF8AFC244AE9073ED050C759670D0840D390E18DF9F1706664C23973AE2A66B62A605A75ACA4C13C4976E1364A12EF355A2EBD384AF65EFA96
310
BC7B8BED2EA6719AAE16FB8491A199335B351775B991C2CA02F390D2D40B028F861F41BCA68B7518BFD0D59A524686F29B26D7164F36B94AD9289CE54E6D1DE6010819891F6E21228B3AD1831EC219194284CF98F06DD01008846CC5A1BEF83801D4CBDC6A1303536877A57A513B0953A94FC707FDBE6064EA84A9E3E6E0FA
310
EE8CF0E9198F7784A316AA0413C2C2F2E0ECA0934D1AE6D05A69BCDE9E91D2A611F573361E38FC1375157F5752AE6B6DFE4B11990F88CCBF0719EE23FF02504B0304140006080800CC70623B408A7D3B7C0000009D0000000B0000006662782F636E782E786D6C4DCCD10A83201886E15B91FFDC552A92A0064DBC8F581632
310
D3703A76F9ABD1C18E3E78F878E5F0D9027ABBFCF2292AE86E2D20171F69F6715550CB827B40839639A5F2770314A7CD293819B45C73AAFB45B35BA61ACAA1C1C7E7855C58C15BC331339661262CC762340413D68D77DA5B42298546CBE6573AF60CEB2F504B0304140006080800CC70623B449FB9BD290100001202000031
310
0000006662782F36394639363044362D344446342D343946362D394244322D3234314243333846323333332F636F72652E786D6C8D515B6EC32010BC0AE22B55850D98B871848994463E412FE002495162B07854397EA176A4F62F3F2C9A9D991D587EB84F37F0AD7D30CEF6905418026DA553C65E7A98E219ED203808EE9D
310
8B7F6810D871D23D2C3014FCE25D9A57483A1BB58D19B54EE9151C43D0110279CB971E06F9A5A7B11A53CC8C70ADE6515EC78BAE4895DB992778883E0700CB907242D17643D7E2538BD869608875438BBAE38922CAC8F1BDD90DB4691A5E2F42C153326A951B95E398B3D1FE599322163C9AE9115F7A3D46ADA0A018778810
310
84E907617BDCEE297BC5BB3DC6BC2EF47FA234AB2745C9D8D8D035EE220B50105E2F0DC1954B9FB747187D9F9D8FA0CCDB042D5FA0C015C65B42DF78BD10F3F3B363CB56C7109DCFDFBBB97E662ED92EB62D13BC2E1BCAE5777DB9966D8A1F504B0304140006080800CC70623BAD7543B64E01000033030000300000006662
310
782F36394639363044362D344446342D343946362D394244322D3234314243333846323333332F636E782E786D6CD593CD6EC32010845F0571AD6CE3D48AD20813A9873E410FBD12D82434182C7EAAE6EDBB2424CD25871E7B41D6EC30B3FA84F9E67BB2E40B4234DE8DB46F1925E094D7C6ED479AD3AE5951B2113C789FEE
310
6C943839C1488B4C05DF079FE72A69D8C96C13AAD6B8631503449F83828872B949AC57D26200B826A308D316B4064D6E46FCDA41C05550DC9E483A00797BFD207EFB092A45DE9514C1BBD22178396BD39D891265658C238DEA00936C654E5E433CB65A26D9F6EDB5EBC14EBF49A45CB856E66048291F6939A9A81BB5C89177
310
38143CA680F4AA299D66A042CEB3354A2684DC9D8D178FE0D9B8B41CAAD720F880EE7EF93C0C18769E099ECC04D5A102C8049A8A05632F4DDF376CF1DE0F6BB65C2F8627B65A33C6BB62177CEBBDAD973006829F89F22E814B54F4BC2BE347F8AA8F681390B50FA73F804400B5F542E796F19FF974E7F78DB802FE05E20750
310
4B0304140006080800CC70623B8D05915C650500003B100000340000006662782F36394639363044362D344446342D343946362D394244322D3234314243333846323333332F6F626A656374732E786D6CAD575B6FA33814FE2B887D06429276DA1565D4266D158D3A339A6846FB502932E050B66023DB74D2FDF5FB190C01
310
9276B2973C046C8ECFF53B17071F77456EBD502133CEAE6CDF9DD81665314F32965ED995DA3A17B6F5310C04E7AA47665B8C14F4CAD6DB7618A48257A5D94AE89654B91AEDDEDDFC61C998326A5B714EA4BCB265FC440BE2924AF184CA6737218AB8E976E7FA6E4338649B0A523E8D98964450A6A029F619B8588D52FE7039
310
B1BD30F0F4F730D0FF866AF6369557DB33949F31A9088B0F848DD8CCFCF9F2767A76E99CCDE733677E3EF59D9BBB9BA5E37F984D16E78BC5E5F5ED25044B25C0C96822E8D60EEFE11B91C581D77CEA34368A1F5329E68CD1B8B61F16D63A1B8E092D294B10C78C4A48EB593D192E7DED9BDEE7995E1B91FDEDD3ACEA9FE831
310
6A756F9F7D4D79F4274C90A7A04248AA51D5F8C718DAE06FB2F75AC4796EBE65D22A88A22223B995679120E2D50E41AA49C260C046A35368846B0BECD0DFF3EBEB8AD4F835768F69B9ADF25C43D30E6B646F807FAA64AD59F61715C7A54127C4AACA98BA3006A9D792DAE165E0D59B61A01FB3A9F9D838D2DAE62445C86166
310
F37564E842E7DE6A69879FEEA2DD5AE7E371E1A5E025154AC307D06A03D73EB5978C58FFA4C8E9033066E0F3BD53BEC1F39F91BE7B55103791EDE6BBB991A2046172CB4581D8B893FA674DDA17A77B3B7C413D1B511FD2743BFF8A38F03A658705E3ADF8015C3A3417FF3D7E439FF591DA0B5F18BC20C1B8981957AE6392A3
310
F43C640C01D1A0B4728E2DD4F26DB4B3C3152A252A3B4E913CEC1C72F012782FF88EFF8637AA552DBEF76408E8A8DE9E50F9E1CB3A2DA0DB1B6039A893B56063DC5B3E3FFB5F72E67AB9FEB4AEC496C4F4C1149625DD662C53E89D7BF0F6151A046260D1337DFDC94502430F83B0EE07A130A224BCAD7DAE1D9FB6CD422FF6
310
920702629C4BB9AE79C12F243C6432A6794E18E5552BA56B431AAB5D91317302B2B071E86C3A42B1A02F999E24061403B5D0EB639195DA655DD3EBEAB4FB862DDF579F014AD0E73C22F99E28DA57FB98E75C6CA2D74D53086D600F4786E0FE3144B771A8A7B900F03594DB8A633CBC49B2EDB69228BB479CF863B5E807AAAB
310
23872F6DFEB4129B949CA33823F58830E86D65621E10047D9DB34D862E8EAC3C2ABC2F7B2C40D67CDFE01F5545B92105AF983AC54D93D69E56FB8E797F88913F898A9FEC705D3F9D1B54EC8426FB500D40A03BD0119B06E1B95DDC7EB8F6975367793EBD70E66733DFB9BC982F9CE564727731999F5D4ECFCE3B8D6A4DC2A0
310
6D50FD148437D110834A64C6CDDF57FBACB5C307A2A477DFE4939736CFEF2B175371E0E10CF0DD1D5C15654E0BCA14D1E87DD02FF93782A162C0A3D95F1524A52770F972BF1EE9809D13CE7DD599467F8ECE9ADD85CE85A34CD45355448C64F9E8A031DC2D596ACC6E5DD93D9B82DE2EF5CAF81363A8E47996A0DE24564A79
310
4115AACE09C55E14540231FDA13C319787134EBF34E3A022514E5B4D9E0826E25C02D5805B15ABE1BEF51B26383D445DD9E875EE33FE4C22DA16427D65A3BCA92CA6D28DD01DF5DC53330704308475351050232CCD31583787BA75774AFB06E5070DD0C8EF484E19968C5D83BA5B90B244D31E54D55A372320FE4786B7EA58
310
44E135AA5467CB7EA333A61683CC6A8C3257034C10CF46F40EF9F5BE59BE5BD30C3C72D235E95D10345C1D45445A5F0BB47E46A5EBE5570F9380B5FA629579952296A773720405982B9DE04011506178964401AA8BDF1FBF0A8EAB6861DD6580C0E38217056766716DAEB2D6FA0917D3E4116581EADB879C4E7CFFB11EFACD
310
3D641311495D92C8676CB409A72D18610D803CE8A626049E8EC1887CB5B44CC39883690DDA8399B4B9855B481E7D71D4A9D22F96E5BB73BF5793020C02137BF837504B0304140006080000CC70623B000000000000000000000000350000006662782F36394639363044362D344446342D343946362D394244322D32343142
310
43333846323333332F76657274696365732E62696E504B0304140006080800CC70623BF270F1330600000004000000360000006662782F36394639363044362D344446342D343946362D394244322D3234314243333846323333332F747269616E676C65732E62696E636660600000504B0304140006080000CC70623B0000
310
00000000000000000000370000006662782F36394639363044362D344446342D343946362D394244322D3234314243333846323333332F617474726962757465732E62696E504B0304140006080800CC70623B08DA0BD19000000041010000360000006662782F36394639363044362D344446342D343946362D394244322D
310
3234314243333846323333332F6469726563746F72792E786D6C858F410AC3201045AF22B36F53E9A60B35CBEEBAE80D244E44489C6234F4F835464A48035D0DF398FF9F8AF63D0E6CC63039F212F8F9020C7D47C6792B21C5FE7403D62A1188E2E60C98D7234A5830286103A55745067B9D86B8A3CF9C7F90C11DE607FB14
310
4396D7B6A82D282E9A152AD114D5EF2CB866EEE831B8EEA07A7BB5A8D7D61A2BAAEB7FD5F70921FF497D00504B0304140006080800CC70623BCA768048FE000000A00100003B0000006662782F36394639363044362D344446342D343946362D394244322D3234314243333846323333332F7265736F75726365732F636F72
310
652E786D6C8D50596E833010BD0A9ADFCA60D600328E9AA639412F609909B1126CE4A5EAF16B0295DABFFECC8CDEA2797AECF8353F924FB44E193D409E5248504B332A3D0D10FC95B4901C39B3C6F85F3248B49871801506CE266BC2B243D2688FDA47549B11775038871E12F988C7004EDE7016A9083E2ADC3D5D84BC8B09
310
D33C8D74D471E6BC8D0192EDC93A815B742658898E651BCB59086ADC356A8C3FD555A1055ED7E7E254D615792D0F075295F585746FF53B694EE78A565DD736979A65AB9933AFE69F8CD2A2F038022F28ED489E135A7CE4554F9BBEA85E68DB53CAB255FEC71496F19FA6A0B42F8B3DEE6673C0F318E4497096AD7DC5F52C33
310
EEB55BFE0D504B010214000A0000080000CC70623B3DEE336E79000000790000001B00000000000000000000000000000000006175746F6465736B2D64657369676E2D7061636B6167652E786D6C504B01021400140006080800CC70623BD486FD9CA0000000F40000001300000000000000000000000000B20000005B436F
310
6E74656E745F54797065735D2E786D6C504B01021400140006080800CC70623BD9DDAED0EC0000007C010000080000000000000000000000000083010000636F72652E786D6C504B01021400140006080800CC70623B55019EA25F0000007C000000070000000000000000000000000095020000636E782E786D6C504B0102
310
1400140006080800CC70623BA24EB22D72010000D40300000C00000000000000000000000000190300006662782F636F72652E786D6C504B01021400140006080800CC70623B408A7D3B7C0000009D0000000B00000000000000000000000000B50400006662782F636E782E786D6C504B01021400140006080800CC70623B
310
449FB9BD290100001202000031000000000000000000000000005A0500006662782F36394639363044362D344446342D343946362D394244322D3234314243333846323333332F636F72652E786D6C504B01021400140006080800CC70623BAD7543B64E010000330300003000000000000000000000000000D20600006662
310
782F36394639363044362D344446342D343946362D394244322D3234314243333846323333332F636E782E786D6C504B01021400140006080800CC70623B8D05915C650500003B10000034000000000000000000000000006E0800006662782F36394639363044362D344446342D343946362D394244322D32343142433338
310
46323333332F6F626A656374732E786D6C504B01021400140006080000CC70623B0000000000000000000000003500000000000000000000000000250E00006662782F36394639363044362D344446342D343946362D394244322D3234314243333846323333332F76657274696365732E62696E504B010214001400060808
310
00CC70623BF270F13306000000040000003600000000000000000000000000780E00006662782F36394639363044362D344446342D343946362D394244322D3234314243333846323333332F747269616E676C65732E62696E504B01021400140006080000CC70623B00000000000000000000000037000000000000000000
310
00000000D20E00006662782F36394639363044362D344446342D343946362D394244322D3234314243333846323333332F617474726962757465732E62696E504B01021400140006080800CC70623B08DA0BD190000000410100003600000000000000000000000000270F00006662782F36394639363044362D344446342D
310
343946362D394244322D3234314243333846323333332F6469726563746F72792E786D6C504B01021400140006080800CC70623BCA768048FE000000A00100003B000000000000000000000000000B1000006662782F36394639363044362D344446342D343946362D394244322D3234314243333846323333332F7265736F
310
75726365732F636F72652E786D6C504B0506000000000E000E0080040000621100000000
  0
ENDSEC
  0
EOF
