  0
SECTION
  2
HEADER
  9
$ACADVER
  1
AC1015
  9
$ACADMAINTVER
 70
     6
  9
$DWGCODEPAGE
  3
ANSI_1252
  9
$INSBASE
 10
0.0
 20
0.0
 30
0.0
  9
$EXTMIN
 10
1813.168022314897
 20
527.115773456012
 30
-76.97363477640508
  9
$EXTMAX
 10
10381.3994357504
 20
5070.926163757304
 30
42.0000000000003
  9
$LIMMIN
 10
0.0
 20
0.0
  9
$LIMMAX
 10
420.0
 20
297.0
  9
$ORTHOMODE
 70
     1
  9
$REGENMODE
 70
     1
  9
$FILLMODE
 70
     1
  9
$QTEXTMODE
 70
     0
  9
$MIRRTEXT
 70
     0
  9
$LTSCALE
 40
1.0
  9
$ATTMODE
 70
     1
  9
$TEXTSIZE
 40
2.5
  9
$TRACEWID
 40
1.0
  9
$TEXTSTYLE
  7
Standard
  9
$CLAYER
  8
0
  9
$CELTYPE
  6
ByLayer
  9
$CECOLOR
 62
     7
  9
$CELTSCALE
 40
1.0
  9
$DISPSILH
 70
     0
  9
$DIMSCALE
 40
1.0
  9
$DIMASZ
 40
2.5
  9
$DIMEXO
 40
0.625
  9
$DIMDLI
 40
3.75
  9
$DIMRND
 40
0.0
  9
$DIMDLE
 40
0.0
  9
$DIMEXE
 40
1.25
  9
$DIMTP
 40
0.0
  9
$DIMTM
 40
0.0
  9
$DIMTXT
 40
2.5
  9
$DIMCEN
 40
2.5
  9
$DIMTSZ
 40
0.0
  9
$DIMTOL
 70
     0
  9
$DIMLIM
 70
     0
  9
$DIMTIH
 70
     0
  9
$DIMTOH
 70
     0
  9
$DIMSE1
 70
     0
  9
$DIMSE2
 70
     0
  9
$DIMTAD
 70
     1
  9
$DIMZIN
 70
     8
  9
$DIMBLK
  1

  9
$DIMASO
 70
     1
  9
$DIMSHO
 70
     1
  9
$DIMPOST
  1

  9
$DIMAPOST
  1

  9
$DIMALT
 70
     0
  9
$DIMALTD
 70
     3
  9
$DIMALTF
 40
0.03937007874016
  9
$DIMLFAC
 40
1.0
  9
$DIMTOFL
 70
     1
  9
$DIMTVP
 40
0.0
  9
$DIMTIX
 70
     0
  9
$DIMSOXD
 70
     0
  9
$DIMSAH
 70
     0
  9
$DIMBLK1
  1

  9
$DIMBLK2
  1

  9
$DIMSTYLE
  2
ISO-25
  9
$DIMCLRD
 70
     0
  9
$DIMCLRE
 70
     0
  9
$DIMCLRT
 70
     0
  9
$DIMTFAC
 40
1.0
  9
$DIMGAP
 40
0.625
  9
$DIMJUST
 70
     0
  9
$DIMSD1
 70
     0
  9
$DIMSD2
 70
     0
  9
$DIMTOLJ
 70
     0
  9
$DIMTZIN
 70
     8
  9
$DIMALTZ
 70
     0
  9
$DIMALTTZ
 70
     0
  9
$DIMUPT
 70
     0
  9
$DIMDEC
 70
     2
  9
$DIMTDEC
 70
     2
  9
$DIMALTU
 70
     2
  9
$DIMALTTD
 70
     3
  9
$DIMTXSTY
  7
Standard
  9
$DIMAUNIT
 70
     0
  9
$DIMADEC
 70
     0
  9
$DIMALTRND
 40
0.0
  9
$DIMAZIN
 70
     0
  9
$DIMDSEP
 70
    44
  9
$DIMATFIT
 70
     3
  9
$DIMFRAC
 70
     0
  9
$DIMLDRBLK
  1

  9
$DIMLUNIT
 70
     2
  9
$DIMLWD
 70
    -2
  9
$DIMLWE
 70
    -2
  9
$DIMTMOVE
 70
     0
  9
$LUNITS
 70
     2
  9
$LUPREC
 70
     4
  9
$SKETCHINC
 40
1.0
  9
$FILLETRAD
 40
5.0
  9
$AUNITS
 70
     0
  9
$AUPREC
 70
     0
  9
$MENU
  1
.
  9
$ELEVATION
 40
0.0
  9
$PELEVATION
 40
0.0
  9
$THICKNESS
 40
0.0
  9
$LIMCHECK
 70
     0
  9
$CHAMFERA
 40
0.0
  9
$CHAMFERB
 40
0.0
  9
$CHAMFERC
 40
0.0
  9
$CHAMFERD
 40
0.0
  9
$SKPOLY
 70
     0
  9
$TDCREATE
 40
2458872.312375509
  9
$TDUCREATE
 40
2458872.270708843
  9
$TDUPDATE
 40
2460983.561771886
  9
$TDUUPDATE
 40
2460983.52010522
  9
$TDINDWG
 40
18.8604703704
  9
$TDUSRTIMER
 40
18.8604494213
  9
$USRTIMER
 70
     1
  9
$ANGBASE
 50
0.0
  9
$ANGDIR
 70
     0
  9
$PDMODE
 70
     0
  9
$PDSIZE
 40
0.0
  9
$PLINEWID
 40
0.0
  9
$SPLFRAME
 70
     0
  9
$SPLINETYPE
 70
     6
  9
$SPLINESEGS
 70
     8
  9
$HANDSEED
  5
5D4
  9
$SURFTAB1
 70
     6
  9
$SURFTAB2
 70
     6
  9
$SURFTYPE
 70
     6
  9
$SURFU
 70
     6
  9
$SURFV
 70
     6
  9
$UCSBASE
  2

  9
$UCSNAME
  2

  9
$UCSORG
 10
0.0
 20
0.0
 30
0.0
  9
$UCSXDIR
 10
1.0
 20
0.0
 30
0.0
  9
$UCSYDIR
 10
0.0
 20
1.0
 30
0.0
  9
$UCSORTHOREF
  2

  9
$UCSORTHOVIEW
 70
     0
  9
$UCSORGTOP
 10
0.0
 20
0.0
 30
0.0
  9
$UCSORGBOTTOM
 10
0.0
 20
0.0
 30
0.0
  9
$UCSORGLEFT
 10
0.0
 20
0.0
 30
0.0
  9
$UCSORGRIGHT
 10
0.0
 20
0.0
 30
0.0
  9
$UCSORGFRONT
 10
0.0
 20
0.0
 30
0.0
  9
$UCSORGBACK
 10
0.0
 20
0.0
 30
0.0
  9
$PUCSBASE
  2

  9
$PUCSNAME
  2

  9
$PUCSORG
 10
0.0
 20
0.0
 30
0.0
  9
$PUCSXDIR
 10
1.0
 20
0.0
 30
0.0
  9
$PUCSYDIR
 10
0.0
 20
1.0
 30
0.0
  9
$PUCSORTHOREF
  2

  9
$PUCSORTHOVIEW
 70
     0
  9
$PUCSORGTOP
 10
0.0
 20
0.0
 30
0.0
  9
$PUCSORGBOTTOM
 10
0.0
 20
0.0
 30
0.0
  9
$PUCSORGLEFT
 10
0.0
 20
0.0
 30
0.0
  9
$PUCSORGRIGHT
 10
0.0
 20
0.0
 30
0.0
  9
$PUCSORGFRONT
 10
0.0
 20
0.0
 30
0.0
  9
$PUCSORGBACK
 10
0.0
 20
0.0
 30
0.0
  9
$USERI1
 70
     0
  9
$USERI2
 70
     0
  9
$USERI3
 70
     0
  9
$USERI4
 70
     0
  9
$USERI5
 70
     0
  9
$USERR1
 40
0.0
  9
$USERR2
 40
0.0
  9
$USERR3
 40
0.0
  9
$USERR4
 40
0.0
  9
$USERR5
 40
0.0
  9
$WORLDVIEW
 70
     1
  9
$SHADEDGE
 70
     3
  9
$SHADEDIF
 70
    70
  9
$TILEMODE
 70
     1
  9
$MAXACTVP
 70
    64
  9
$PINSBASE
 10
0.0
 20
0.0
 30
0.0
  9
$PLIMCHECK
 70
     0
  9
$PEXTMIN
 10
15.0979381443299
 20
17.31672394043528
 30
0.0
  9
$PEXTMAX
 10
241.9020618556701
 20
177.6832760595647
 30
0.0
  9
$PLIMMIN
 10
-20.0
 20
-7.5
  9
$PLIMMAX
 10
277.0
 20
202.5
  9
$UNITMODE
 70
     0
  9
$VISRETAIN
 70
     1
  9
$PLINEGEN
 70
     0
  9
$PSLTSCALE
 70
     1
  9
$TREEDEPTH
 70
  3020
  9
$CMLSTYLE
  2
Standard
  9
$CMLJUST
 70
     0
  9
$CMLSCALE
 40
20.0
  9
$PROXYGRAPHICS
 70
     1
  9
$MEASUREMENT
 70
     1
  9
$CELWEIGHT
370
    -3
  9
$ENDCAPS
280
     0
  9
$JOINSTYLE
280
     0
  9
$LWDISPLAY
290
     0
  9
$INSUNITS
 70
     4
  9
$HYPERLINKBASE
  1

  9
$STYLESHEET
  1

  9
$XEDIT
290
     1
  9
$CEPSNTYPE
380
     0
  9
$PSTYLEMODE
290
     1
  9
$FINGERPRINTGUID
  2
{904878C0-6957-4577-8612-FB6076E7829B}
  9
$VERSIONGUID
  2
{EDC5F5B8-66B0-4530-9C98-803C2708DFE7}
  9
$EXTNAMES
290
     1
  9
$PSVPSCALE
 40
0.0
  9
$OLESTARTUP
290
     0
  0
ENDSEC
  0
SECTION
  2
CLASSES
  0
CLASS
  1
ACDBDICTIONARYWDFLT
  2
AcDbDictionaryWithDefault
  3
ObjectDBX Classes
 90
        0
280
     0
281
     0
  0
CLASS
  1
MATERIAL
  2
AcDbMaterial
  3
ObjectDBX Classes
 90
     1153
280
     0
281
     0
  0
CLASS
  1
SORTENTSTABLE
  2
AcDbSortentsTable
  3
ObjectDBX Classes
 90
        0
280
     0
281
     0
  0
CLASS
  1
PLOTSETTINGS
  2
AcDbPlotSettings
  3
ObjectDBX Classes
 90
        0
280
     0
281
     0
  0
CLASS
  1
VISUALSTYLE
  2
AcDbVisualStyle
  3
ObjectDBX Classes
 90
     4095
280
     0
281
     0
  0
CLASS
  1
SCALE
  2
AcDbScale
  3
ObjectDBX Classes
 90
     1153
280
     0
281
     0
  0
CLASS
  1
DICTIONARYVAR
  2
AcDbDictionaryVar
  3
ObjectDBX Classes
 90
        0
280
     0
281
     0
  0
CLASS
  1
ACDBPLACEHOLDER
  2
AcDbPlaceHolder
  3
ObjectDBX Classes
 90
        0
280
     0
281
     0
  0
CLASS
  1
LAYOUT
  2
AcDbLayout
  3
ObjectDBX Classes
 90
        0
280
     0
281
     0
  0
ENDSEC
  0
SECTION
  2
TABLES
  0
TABLE
  2
VPORT
  5
32
102
{ACAD_XDICTIONARY
360
5C7
102
}
330
0
100
AcDbSymbolTable
 70
     1
  0
VPORT
  5
39
330
32
100
AcDbSymbolTableRecord
100
AcDbViewportTableRecord
  2
*Active
 70
     0
 10
0.0
 20
0.0
 11
1.0
 21
1.0
 12
1261.887361748892
 22
669.0815751496734
 13
0.0
 23
0.0
 14
10.0
 24
10.0
 15
10.0
 25
10.0
 16
0.0
 26
0.0
 36
1.0
 17
7759.205398603561
 27
2848.63477070933
 37
0.0
 40
154.1074630798876
 41
1.94
 42
50.0
 43
0.0
 44
0.0
 50
0.0
 51
0.0
 71
     0
 72
  1000
 73
     1
 74
     3
 75
     0
 76
     0
 77
     0
 78
     0
281
     0
 65
     1
110
0.0
120
0.0
130
0.0
111
1.0
121
0.0
131
0.0
112
0.0
122
1.0
132
0.0
 79
     0
146
0.0
1001
ACAD_NAV_VCDISPLAY
1070
     3
  0
ENDTAB
  0
TABLE
  2
LTYPE
  5
11
330
0
100
AcDbSymbolTable
 70
    25
  0
LTYPE
  5
12
330
11
100
AcDbSymbolTableRecord
100
AcDbLinetypeTableRecord
  2
ByBlock
 70
     0
  3

 72
    65
 73
     0
 40
0.0
  0
LTYPE
  5
13
330
11
100
AcDbSymbolTableRecord
100
AcDbLinetypeTableRecord
  2
ByLayer
 70
     0
  3

 72
    65
 73
     0
 40
0.0
  0
LTYPE
  5
14
330
11
100
AcDbSymbolTableRecord
100
AcDbLinetypeTableRecord
  2
Continuous
 70
     0
  3
Solid line
 72
    65
 73
     0
 40
0.0
  0
ENDTAB
  0
TABLE
  2
LAYER
  5
1
102
{ACAD_XDICTIONARY
360
2
102
}
330
0
100
AcDbSymbolTable
 70
    26
  0
LAYER
  5
7
102
{ACAD_XDICTIONARY
360
8
102
}
330
1
100
AcDbSymbolTableRecord
100
AcDbLayerTableRecord
  2
0
 70
     0
 62
     7
  6
Continuous
370
    -3
390
C
1001
AcAecLayerStandard
1000

1000

1001
AcCmTransparency
1071
 33554687
  0
ENDTAB
  0
TABLE
  2
STYLE
  5
17
330
0
100
AcDbSymbolTable
 70
    14
  0
STYLE
  5
18
330
17
100
AcDbSymbolTableRecord
100
AcDbTextStyleTableRecord
  2
Standard
 70
     0
 40
0.0
 41
1.0
 50
0.0
 71
     0
 42
2.5
  3
arial.ttf
  4

1001
ACAD
1000
Arial
1071
       34
  0
STYLE
  5
53A
330
17
100
AcDbSymbolTableRecord
100
AcDbTextStyleTableRecord
  2
OSRAM 5
 70
     0
 40
5.0
 41
1.0
 50
0.0
 71
     0
 42
5.0
  3
arial.ttf
  4

1001
ACAD
1000
Arial
1071
       34
  0
ENDTAB
  0
TABLE
  2
VIEW
  5
30
330
0
100
AcDbSymbolTable
 70
     0
  0
ENDTAB
  0
TABLE
  2
UCS
  5
31
330
0
100
AcDbSymbolTable
 70
     0
  0
ENDTAB
  0
TABLE
  2
APPID
  5
5
330
0
100
AcDbSymbolTable
 70
    29
  0
APPID
  5
6
330
5
100
AcDbSymbolTableRecord
100
AcDbRegAppTableRecord
  2
ACAD
 70
     0
  0
APPID
  5
2A
330
5
100
AcDbSymbolTableRecord
100
AcDbRegAppTableRecord
  2
ACAD_PSEXT
 70
     0
  0
APPID
  5
3B
330
5
100
AcDbSymbolTableRecord
100
AcDbRegAppTableRecord
  2
ACAD_NAV_VCDISPLAY
 70
     0
  0
APPID
  5
15
330
5
100
AcDbSymbolTableRecord
100
AcDbRegAppTableRecord
  2
AcAecLayerStandard
 70
     0
  0
APPID
  5
16
330
5
100
AcDbSymbolTableRecord
100
AcDbRegAppTableRecord
  2
AcCmTransparency
 70
     0
  0
APPID
  5
2B
330
5
100
AcDbSymbolTableRecord
100
AcDbRegAppTableRecord
  2
PLOTTRANSPARENCY
 70
     0
  0
ENDTAB
  0
TABLE
  2
DIMSTYLE
  5
1C
330
0
100
AcDbSymbolTable
 70
    16
100
AcDbDimStyleTable
  0
DIMSTYLE
105
1D
102
{ACAD_REACTORS
102
}
330
1C
100
AcDbSymbolTableRecord
100
AcDbDimStyleTableRecord
  2
ISO-25
 70
     0
 41
2.5
 42
0.625
 43
3.75
 44
1.25
 73
     0
 74
     0
 77
     1
 78
     8
140
2.5
141
2.5
143
0.03937007874016
147
0.625
171
     3
172
     1
178
     0
271
     2
272
     2
274
     3
278
    44
283
     0
284
     8
340
18
  0
ENDTAB
  0
TABLE
  2
BLOCK_RECORD
  5
20
330
0
100
AcDbSymbolTable
 70
   342
  0
BLOCK_RECORD
  5
21
102
{ACAD_XDICTIONARY
360
22
102
}
330
20
100
AcDbSymbolTableRecord
100
AcDbBlockTableRecord
  2
*Model_Space
340
27
  0
BLOCK_RECORD
  5
2C
330
20
100
AcDbSymbolTableRecord
100
AcDbBlockTableRecord
  2
*Paper_Space
340
2F
  0
ENDTAB
  0
ENDSEC
  0
SECTION
  2
BLOCKS
  0
BLOCK
  5
24
330
21
100
AcDbEntity
  8
0
100
AcDbBlockBegin
  2
*Model_Space
 70
     0
 10
0.0
 20
0.0
 30
0.0
  3
*Model_Space
  1

  0
ENDBLK
  5
25
330
21
100
AcDbEntity
  8
0
100
AcDbBlockEnd
  0
BLOCK
  5
2D
330
2C
100
AcDbEntity
 67
     1
  8
0
100
AcDbBlockBegin
  2
*Paper_Space
 70
     0
 10
0.0
 20
0.0
 30
0.0
  3
*Paper_Space
  1

  0
ENDBLK
  5
2E
330
2C
100
AcDbEntity
 67
     1
  8
0
100
AcDbBlockEnd
  0
ENDSEC
  0
SECTION
  2
ENTITIES
  0
LINE
  5
63
330
21
100
AcDbEntity
  8
0
370
    -3
100
AcDbLine
 10
82.49999999999636
 20
1.5
 30
0.0
 11
-82.49999999999818
 21
1.5
 31
0.0
  0
LINE
  5
64
330
21
100
AcDbEntity
  8
0
370
    -3
100
AcDbLine
 10
82.49999999999636
 20
0.6128798004097007
 30
0.0
 11
-82.49999999999818
 21
0.6128798004101554
 31
0.0
  0
LINE
  5
65
330
21
100
AcDbEntity
  8
0
370
    -3
100
AcDbLine
 10
82.49999999999636
 20
2.5
 30
0.0
 11
-82.49999999999818
 21
2.5
 31
0.0
  0
LINE
  5
66
330
21
100
AcDbEntity
  8
0
370
    -3
100
AcDbLine
 10
82.49999999999636
 20
2.5
 30
0.0
 11
82.49999999999636
 21
1.5
 31
0.0
  0
LINE
  5
67
330
21
100
AcDbEntity
  8
0
370
    -3
100
AcDbLine
 10
82.49999999999636
 20
2.999999999999545
 30
0.0
 11
80.10955022000053
 21
2.999999999999545
 31
0.0
  0
LINE
  5
68
330
21
100
AcDbEntity
  8
0
370
    -3
100
AcDbLine
 10
64.10955022000053
 20
2.999999999999545
 30
0.0
 11
36.23651614000119
 21
2.999999999999545
 31
0.0
  0
LINE
  5
69
330
21
100
AcDbEntity
  8
0
370
    -3
100
AcDbLine
 10
5.236516140001186
 20
3.0
 30
0.0
 11
-38.67426089999753
 21
3.0
 31
0.0
  0
LINE
  5
6A
330
21
100
AcDbEntity
  8
0
370
    -3
100
AcDbLine
 10
-54.67426089999935
 20
3.0
 30
0.0
 11
-61.02626089999831
 21
3.0
 31
0.0
  0
LINE
  5
6B
330
21
100
AcDbEntity
  8
0
370
    -3
100
AcDbLine
 10
-77.0262608999983
 20
3.0
 30
0.0
 11
-82.49999999999818
 21
3.0
 31
0.0
  0
LINE
  5
6C
330
21
100
AcDbEntity
  8
0
370
    -3
100
AcDbLine
 10
82.49999999999636
 20
0.346743740531565
 30
0.0
 11
-82.49999999999818
 21
0.346743740531565
 31
0.0
  0
LINE
  5
6D
330
21
100
AcDbEntity
  8
0
370
    -3
100
AcDbLine
 10
82.49999999999636
 20
0.2999999999997272
 30
0.0
 11
-82.49999999999818
 21
0.3000000000001819
 31
0.0
  0
LINE
  5
6E
330
21
100
AcDbEntity
  8
0
370
    -3
100
AcDbLine
 10
82.49999999999636
 20
0.0
 30
0.0
 11
-82.49999999999818
 21
0.0
 31
0.0
  0
ARC
  5
6F
330
21
100
AcDbEntity
  8
0
370
    -3
100
AcDbCircle
 10
80.96874999999454
 20
11.24999999999909
 30
0.0
 40
7.33125000000039
100
AcDbArc
 50
330.1371656437253
 51
29.86283435626545
  0
LINE
  5
70
330
21
100
AcDbEntity
  8
0
370
    -3
100
AcDbLine
 10
87.3265560165928
 20
14.90041493775743
 30
0.0
 11
87.49999999999454
 21
14.99999999999818
 31
0.0
  0
ARC
  5
71
330
21
100
AcDbEntity
  8
0
370
    -3
100
AcDbCircle
 10
80.96874999999454
 20
11.24999999999909
 30
0.0
 40
7.53125000000039
100
AcDbArc
 50
330.1371656437189
 51
29.8628343562751
  0
LINE
  5
72
330
21
100
AcDbEntity
  8
0
370
    -3
100
AcDbLine
 10
87.3265560165928
 20
7.59958506223893
 30
0.0
 11
87.49999999999454
 21
7.499999999998181
 31
0.0
  0
LINE
  5
73
330
21
100
AcDbEntity
  8
0
370
    -3
100
AcDbLine
 10
82.49999999998909
 20
0.0001219088590005
 30
0.0
 11
82.49999999998909
 21
1.499979999999596
 31
0.0
  0
LINE
  5
74
330
21
100
AcDbEntity
  8
0
370
    -3
100
AcDbLine
 10
82.49999999998909
 20
1.499979999999596
 30
0.0
 11
82.49999999999272
 21
1.500000000000455
 31
0.0
  0
LINE
  5
75
330
21
100
AcDbEntity
  8
0
370
    -3
100
AcDbLine
 10
82.49999999999272
 20
1.500000000000455
 30
0.0
 11
82.49999999999272
 21
2.5
 31
0.0
  0
LINE
  5
76
330
21
100
AcDbEntity
  8
0
370
    -3
100
AcDbLine
 10
82.49999999999272
 20
2.5
 30
0.0
 11
82.49999999998909
 21
2.50001999999995
 31
0.0
  0
LINE
  5
77
330
21
100
AcDbEntity
  8
0
370
    -3
100
AcDbLine
 10
82.49999999998909
 20
2.50001999999995
 30
0.0
 11
82.49999999998909
 21
29.69786796564358
 31
0.0
  0
ARC
  5
78
330
21
100
AcDbEntity
  8
0
370
    -3
100
AcDbCircle
 10
80.96874999999454
 20
26.24999999999864
 30
0.0
 40
7.33125000000004
100
AcDbArc
 50
330.1371656437315
 51
29.38446230372707
  0
ARC
  5
79
330
21
100
AcDbEntity
  8
0
370
    -3
100
AcDbCircle
 10
94.03124999999454
 20
18.74999999999864
 30
0.0
 40
7.73125000000009
100
AcDbArc
 50
150.1371656437186
 51
209.8628343562843
  0
ARC
  5
7A
330
21
100
AcDbEntity
  8
0
370
    -3
100
AcDbCircle
 10
94.03124999999454
 20
3.749999999999091
 30
0.0
 40
7.73125000000006
100
AcDbArc
 50
150.1371656437341
 51
204.2818936307646
  0
ARC
  5
7B
330
21
100
AcDbEntity
  8
0
370
    -3
100
AcDbCircle
 10
86.71049837594364
 20
0.4473386153804313
 30
0.0
 40
0.3000000000000321
100
AcDbArc
 50
271.9999999999345
 51
24.28189363082523
  0
LINE
  5
7C
330
21
100
AcDbEntity
  8
0
370
    -3
100
AcDbLine
 10
86.72096822495405
 20
0.1475213672747486
 30
0.0
 11
82.49999999998909
 21
0.0001219088590005
 31
0.0
  0
LINE
  5
7D
330
21
100
AcDbEntity
  8
0
370
    -3
100
AcDbLine
 10
82.49999999998909
 20
0.0001219088590005
 30
0.0
 11
82.49999999999454
 21
-0.2000000000007276
 31
0.0
  0
ARC
  5
7E
330
21
100
AcDbEntity
  8
0
370
    -3
100
AcDbCircle
 10
94.03124999999454
 20
48.74999999999864
 30
0.0
 40
7.531250000000081
100
AcDbArc
 50
180.3423485954397
 51
209.8628343562811
  0
LINE
  5
7F
330
21
100
AcDbEntity
  8
0
370
    -3
100
AcDbLine
 10
87.49999999999454
 20
44.99999999999818
 30
0.0
 11
87.46148777442068
 21
44.97788771737169
 31
0.0
  0
LINE
  5
80
330
21
100
AcDbEntity
  8
0
370
    -3
100
AcDbLine
 10
87.49999999999454
 20
29.99999999999818
 30
0.0
 11
87.40430242742696
 21
29.9450540253174
 31
0.0
  0
ARC
  5
81
330
21
100
AcDbEntity
  8
0
370
    -3
100
AcDbCircle
 10
80.96874999999454
 20
26.24999999999864
 30
0.0
 40
7.531250000000041
100
AcDbArc
 50
330.1371656437189
 51
29.8628343562721
  0
LINE
  5
82
330
21
100
AcDbEntity
  8
0
370
    -3
100
AcDbLine
 10
87.3265560165928
 20
22.59958506223893
 30
0.0
 11
87.49999999999454
 21
22.49999999999818
 31
0.0
  0
ARC
  5
83
330
21
100
AcDbEntity
  8
0
370
    -3
100
AcDbCircle
 10
94.03124999999454
 20
33.74999999999864
 30
0.0
 40
7.531250000000081
100
AcDbArc
 50
180.3423501546422
 51
209.8628343562811
  0
LINE
  5
84
330
21
100
AcDbEntity
  8
0
370
    -3
100
AcDbLine
 10
86.72794812429493
 20
-0.0523567981290398
 30
0.0
 11
86.72096822495405
 21
0.1475213672747486
 31
0.0
  0
LINE
  5
85
330
21
100
AcDbEntity
  8
0
370
    -3
100
AcDbLine
 10
87.16626501401697
 20
0.6529517755125198
 30
0.0
 11
86.98395835878728
 21
0.5707065114597754
 31
0.0
  0
ARC
  5
86
330
21
100
AcDbEntity
  8
0
370
    -3
100
AcDbCircle
 10
86.71049837594364
 20
0.4473386153804313
 30
0.0
 40
0.5000000000000311
100
AcDbArc
 50
272.0000000000039
 51
24.28189363073331
  0
LINE
  5
87
330
21
100
AcDbEntity
  8
0
370
    -3
100
AcDbLine
 10
87.62689660084652
 20
74.76977419787909
 30
0.0
 11
87.58933926584177
 21
74.74991982298843
 31
0.0
  0
ARC
  5
88
330
21
100
AcDbEntity
  8
0
370
    -3
100
AcDbCircle
 10
80.96874999999454
 20
71.24999999999909
 30
0.0
 40
7.53125000000008
100
AcDbArc
 50
359.5008214065101
 51
27.86279937026998
  0
LINE
  5
89
330
21
100
AcDbEntity
  8
0
370
    -3
100
AcDbLine
 10
82.49999999999454
 20
-0.2000000000007276
 30
0.0
 11
86.72794812429493
 21
-0.0523567981290398
 31
0.0
  0
ARC
  5
8A
330
21
100
AcDbEntity
  8
0
370
    -3
100
AcDbCircle
 10
80.96874999999454
 20
41.24999999999864
 30
0.0
 40
7.531250000000041
100
AcDbArc
 50
359.6576497390158
 51
29.8628343562721
  0
ARC
  5
8B
330
21
100
AcDbEntity
  8
0
370
    -3
100
AcDbCircle
 10
94.03124999999454
 20
63.74999999999909
 30
0.0
 40
7.53125000000005
100
AcDbArc
 50
180.3423468604742
 51
209.8628343562811
  0
LINE
  5
8C
330
21
100
AcDbEntity
  8
0
370
    -3
100
AcDbLine
 10
87.46148777442068
 20
59.97788771737214
 30
0.0
 11
87.49999999999454
 21
59.99999999999818
 31
0.0
  0
LINE
  5
8D
330
21
100
AcDbEntity
  8
0
370
    -3
100
AcDbLine
 10
84.72984678671128
 20
75.12213203435795
 30
0.0
 11
82.49999999999454
 21
75.19999999999891
 31
0.0
  0
ARC
  5
8E
330
21
100
AcDbEntity
  8
0
370
    -3
100
AcDbCircle
 10
94.03124999999454
 20
3.749999999999091
 30
0.0
 40
7.531250000000061
100
AcDbArc
 50
150.1371656437279
 51
204.281893630766
  0
ARC
  5
8F
330
21
100
AcDbEntity
  8
0
370
    -3
100
AcDbCircle
 10
94.03124999999454
 20
18.74999999999864
 30
0.0
 40
7.531250000000081
100
AcDbArc
 50
150.1371656437279
 51
209.8628343562811
  0
ARC
  5
90
330
21
100
AcDbEntity
  8
0
370
    -3
100
AcDbCircle
 10
87.18486197174389
 20
74.53609624283308
 30
0.0
 40
0.500000000000028
100
AcDbArc
 50
27.86279937020393
 51
53.07414966372036
  0
ARC
  5
91
330
21
100
AcDbEntity
  8
0
370
    -3
100
AcDbCircle
 10
80.96874999999454
 20
56.24999999999909
 30
0.0
 40
7.531250000000041
100
AcDbArc
 50
359.6576497110806
 51
22.8608558264234
  0
ARC
  5
92
330
21
100
AcDbEntity
  8
0
370
    -3
100
AcDbCircle
 10
80.96874999999454
 20
56.24999999999909
 30
0.0
 40
7.531250000000041
100
AcDbArc
 50
22.8608558264234
 51
29.8628343562691
  0
LINE
  5
93
330
21
100
AcDbEntity
  8
0
370
    -3
100
AcDbLine
 10
86.72794812429493
 20
-0.0523567981290398
 30
0.0
 11
88.49999999999818
 21
0.0095246169498751
 31
0.0
  0
LINE
  5
94
330
21
100
AcDbEntity
  8
0
370
    -3
100
AcDbLine
 10
88.50000000000182
 20
74.99047538304876
 30
0.0
 11
87.43381281066104
 21
75.02770746012266
 31
0.0
  0
LINE
  5
95
330
21
100
AcDbEntity
  8
0
370
    -3
100
AcDbLine
 10
86.72229278051236
 20
2.999999999995453
 30
0.0
 11
86.53743744812891
 21
2.999999999995453
 31
0.0
  0
LINE
  5
96
330
21
100
AcDbEntity
  8
0
370
    -3
100
AcDbLine
 10
86.72229278051236
 20
2.999999999995453
 30
0.0
 11
86.72229278051236
 21
1.93372058144314
 31
0.0
  0
LINE
  5
97
330
21
100
AcDbEntity
  8
0
370
    -3
100
AcDbLine
 10
88.50000000000182
 20
11.24999999999909
 30
0.0
 11
88.50000000000182
 21
0.0095246169494203
 31
0.0
  0
LINE
  5
98
330
21
100
AcDbEntity
  8
0
370
    -3
100
AcDbLine
 10
88.50000000000182
 20
56.24999999999909
 30
0.0
 11
88.50000000000182
 21
56.15999999999804
 31
0.0
  0
LINE
  5
99
330
21
100
AcDbEntity
  8
0
370
    -3
100
AcDbLine
 10
88.50000000000182
 20
56.15999999999804
 30
0.0
 11
88.50000000000182
 21
41.24999999999864
 31
0.0
  0
LINE
  5
9A
330
21
100
AcDbEntity
  8
0
370
    -3
100
AcDbLine
 10
88.50000000000182
 20
26.24999999999864
 30
0.0
 11
88.50000000000182
 21
11.24999999999909
 31
0.0
  0
LINE
  5
9B
330
21
100
AcDbEntity
  8
0
370
    -3
100
AcDbLine
 10
88.50000000000182
 20
41.24999999999864
 30
0.0
 11
88.50000000000182
 21
41.15999999999804
 31
0.0
  0
LINE
  5
9C
330
21
100
AcDbEntity
  8
0
370
    -3
100
AcDbLine
 10
88.50000000000182
 20
41.15999999999804
 30
0.0
 11
88.50000000000182
 21
26.24999999999864
 31
0.0
  0
LINE
  5
9D
330
21
100
AcDbEntity
  8
0
370
    -3
100
AcDbLine
 10
88.50000000000182
 20
71.24999999999909
 30
0.0
 11
88.50000000000182
 21
71.18428003185909
 31
0.0
  0
LINE
  5
9E
330
21
100
AcDbEntity
  8
0
370
    -3
100
AcDbLine
 10
88.50000000000182
 20
71.15999999999804
 30
0.0
 11
88.50000000000182
 21
70.88469988681618
 31
0.0
  0
LINE
  5
9F
330
21
100
AcDbEntity
  8
0
370
    -3
100
AcDbLine
 10
88.50000000000182
 20
70.88469988681618
 30
0.0
 11
88.50000000000182
 21
56.24999999999909
 31
0.0
  0
LINE
  5
A0
330
21
100
AcDbEntity
  8
0
370
    -3
100
AcDbLine
 10
88.50000000000182
 20
74.99047538304785
 30
0.0
 11
88.50000000000182
 21
71.24999999999909
 31
0.0
  0
ARC
  5
A1
330
21
100
AcDbEntity
  8
0
370
    -3
100
AcDbCircle
 10
-81.46875000001455
 20
48.74999999999955
 30
0.0
 40
7.531250000000041
100
AcDbArc
 50
150.1371656437219
 51
157.1258615126635
  0
ARC
  5
A2
330
21
100
AcDbEntity
  8
0
370
    -3
100
AcDbCircle
 10
-81.46875000001455
 20
48.74999999999955
 30
0.0
 40
7.531250000000041
100
AcDbArc
 50
157.1258615126635
 51
180.3423503150841
  0
LINE
  5
A3
330
21
100
AcDbEntity
  8
0
370
    -3
100
AcDbLine
 10
-87.96148777442795
 20
52.47788771736623
 30
0.0
 11
-88.00000000001455
 21
52.5
 31
0.0
  0
LINE
  5
A4
330
21
100
AcDbEntity
  8
0
370
    -3
100
AcDbLine
 10
-83.00000000001455
 20
75.19999999999891
 30
0.0
 11
-85.2298467867895
 21
75.12213203435613
 31
0.0
  0
LINE
  5
A5
330
21
100
AcDbEntity
  8
0
370
    -3
100
AcDbLine
 10
-83.00000000001273
 20
75.12213203435613
 30
0.0
 11
-83.00000000001455
 21
75.19999999999891
 31
0.0
  0
LINE
  5
A6
330
21
100
AcDbEntity
  8
0
370
    -3
100
AcDbLine
 10
-87.96148777442795
 20
67.47788771736623
 30
0.0
 11
-88.00000000001455
 21
67.5
 31
0.0
  0
ARC
  5
A7
330
21
100
AcDbEntity
  8
0
370
    -3
100
AcDbCircle
 10
-94.53125000001455
 20
71.24999999999909
 30
0.0
 40
7.53125000000006
100
AcDbArc
 50
330.1371656437279
 51
359.6576497555661
  0
LINE
  5
A8
330
21
100
AcDbEntity
  8
0
370
    -3
100
AcDbLine
 10
-88.00000000001455
 20
7.5
 30
0.0
 11
-87.826556016611
 21
7.400414937759706
 31
0.0
  0
ARC
  5
A9
330
21
100
AcDbEntity
  8
0
370
    -3
100
AcDbCircle
 10
-81.46875000001455
 20
3.749999999999545
 30
0.0
 40
7.331250000000079
100
AcDbArc
 50
150.1371656437121
 51
207.8627993702807
  0
LINE
  5
AA
330
21
100
AcDbEntity
  8
0
370
    -3
100
AcDbLine
 10
-88.12689660086653
 20
0.2302258021190937
 30
0.0
 11
-87.95008274922475
 21
0.3236969841373138
 31
0.0
  0
ARC
  5
AB
330
21
100
AcDbEntity
  8
0
370
    -3
100
AcDbCircle
 10
-81.46875000001455
 20
3.749999999999545
 30
0.0
 40
7.53125000000008
100
AcDbArc
 50
150.1371656437219
 51
207.862799370273
  0
LINE
  5
AC
330
21
100
AcDbEntity
  8
0
370
    -3
100
AcDbLine
 10
-87.82655601661281
 20
15.09958506224075
 30
0.0
 11
-88.00000000001455
 21
15.0
 31
0.0
  0
ARC
  5
AD
330
21
100
AcDbEntity
  8
0
370
    -3
100
AcDbCircle
 10
-81.46875000001455
 20
18.74999999999955
 30
0.0
 40
7.531250000000041
100
AcDbArc
 50
150.1371656437219
 51
209.8628343562721
  0
LINE
  5
AE
330
21
100
AcDbEntity
  8
0
370
    -3
100
AcDbLine
 10
-88.00000000001455
 20
22.5
 30
0.0
 11
-87.826556016611
 21
22.40041493775925
 31
0.0
  0
ARC
  5
AF
330
21
100
AcDbEntity
  8
0
370
    -3
100
AcDbCircle
 10
-81.46875000001455
 20
18.74999999999955
 30
0.0
 40
7.33125000000004
100
AcDbArc
 50
150.1371656437121
 51
209.8628343562685
  0
ARC
  5
B0
330
21
100
AcDbEntity
  8
0
370
    -3
100
AcDbCircle
 10
-81.46875000001455
 20
63.74999999999909
 30
0.0
 40
7.53125000000039
100
AcDbArc
 50
150.1371656437189
 51
180.3423503003873
  0
LINE
  5
B1
330
21
100
AcDbEntity
  8
0
370
    -3
100
AcDbLine
 10
-87.70231172011518
 20
-0.0357916563448271
 30
0.0
 11
-83.00000000001455
 21
-0.2000000000007276
 31
0.0
  0
LINE
  5
B2
330
21
100
AcDbEntity
  8
0
370
    -3
100
AcDbLine
 10
-87.70231172011518
 20
-0.0357916563448271
 30
0.0
 11
-87.6953318207743
 21
0.1640865090589614
 31
0.0
  0
LINE
  5
B3
330
21
100
AcDbEntity
  8
0
370
    -3
100
AcDbLine
 10
-83.0000000000091
 20
0.0001219088590005
 30
0.0
 11
-87.6953318207743
 21
0.1640865090589614
 31
0.0
  0
LINE
  5
B4
330
21
100
AcDbEntity
  8
0
370
    -3
100
AcDbLine
 10
-83.00000000001455
 20
-0.2000000000007276
 30
0.0
 11
-83.0000000000091
 21
0.0001219088590005
 31
0.0
  0
ARC
  5
B5
330
21
100
AcDbEntity
  8
0
370
    -3
100
AcDbCircle
 10
-94.53125000001455
 20
11.24999999999955
 30
0.0
 40
7.73125000000005
100
AcDbArc
 50
330.1371656437371
 51
29.86283435628135
  0
ARC
  5
B6
330
21
100
AcDbEntity
  8
0
370
    -3
100
AcDbCircle
 10
-94.53125000001455
 20
11.24999999999955
 30
0.0
 40
7.53125000000005
100
AcDbArc
 50
330.1371656437279
 51
29.86283435627811
  0
ARC
  5
B7
330
21
100
AcDbEntity
  8
0
370
    -3
100
AcDbCircle
 10
-81.46875000001455
 20
33.74999999999955
 30
0.0
 40
7.531250000000041
100
AcDbArc
 50
150.1371656437219
 51
180.3423502427945
  0
LINE
  5
B8
330
21
100
AcDbEntity
  8
0
370
    -3
100
AcDbLine
 10
-88.00000000001455
 20
37.5
 30
0.0
 11
-87.96148777442795
 21
37.47788771736668
 31
0.0
  0
ARC
  5
B9
330
21
100
AcDbEntity
  8
0
370
    -3
100
AcDbCircle
 10
-94.53125000001455
 20
56.24999999999909
 30
0.0
 40
7.531250000000081
100
AcDbArc
 50
330.1371656437279
 51
359.6576497242348
  0
ARC
  5
BA
330
21
100
AcDbEntity
  8
0
370
    -3
100
AcDbCircle
 10
-94.53125000001455
 20
26.24999999999955
 30
0.0
 40
7.531250000000081
100
AcDbArc
 50
330.1371656437279
 51
27.24576449551262
  0
ARC
  5
BB
330
21
100
AcDbEntity
  8
0
370
    -3
100
AcDbCircle
 10
-94.53125000001455
 20
26.24999999999955
 30
0.0
 40
7.73125000000009
100
AcDbArc
 50
330.1371656437341
 51
26.48510450119679
  0
LINE
  5
BC
330
21
100
AcDbEntity
  8
0
370
    -3
100
AcDbLine
 10
-83.00000000000364
 20
0.5641101056398838
 30
0.0
 11
-83.0000000000091
 21
0.0001219088590005
 31
0.0
  0
ARC
  5
BD
330
21
100
AcDbEntity
  8
0
370
    -3
100
AcDbCircle
 10
-87.6848619717639
 20
0.4639037571650988
 30
0.0
 40
0.30000000000003
100
AcDbArc
 50
207.8627993703456
 51
268.0000000000655
  0
ARC
  5
BE
330
21
100
AcDbEntity
  8
0
370
    -3
100
AcDbCircle
 10
-94.53125000001455
 20
41.24999999999955
 30
0.0
 40
7.531250000000081
100
AcDbArc
 50
330.1371656437279
 51
359.6576497453565
  0
ARC
  5
BF
330
21
100
AcDbEntity
  8
0
370
    -3
100
AcDbCircle
 10
-87.6848619717639
 20
0.4639037571650988
 30
0.0
 40
0.500000000000029
100
AcDbArc
 50
207.86279937025
 51
267.9999999999961
  0
LINE
  5
C0
330
21
100
AcDbEntity
  8
0
370
    -3
100
AcDbLine
 10
-87.82383394909994
 20
75.0315480065965
 30
0.0
 11
-87.8924322138264
 21
75.0291525024063
 31
0.0
  0
LINE
  5
C1
330
21
100
AcDbEntity
  8
0
370
    -3
100
AcDbLine
 10
-87.8924322138264
 20
75.0291525024063
 30
0.0
 11
-89.00000000001819
 21
74.9904753830483
 31
0.0
  0
LINE
  5
C2
330
21
100
AcDbEntity
  8
0
370
    -3
100
AcDbLine
 10
-89.00000000002183
 20
0.0095246169498751
 30
0.0
 11
-87.70231172011518
 21
-0.0357916563448271
 31
0.0
  0
LINE
  5
C3
330
21
100
AcDbEntity
  8
0
370
    -3
100
AcDbLine
 10
-87.22229278053237
 20
72.00000000000318
 30
0.0
 11
-87.04699141531273
 21
72.00000000000318
 31
0.0
  0
LINE
  5
C4
330
21
100
AcDbEntity
  8
0
370
    -3
100
AcDbLine
 10
-87.22229278053237
 20
72.00000000000318
 30
0.0
 11
-87.22229278053237
 21
72.97627941861128
 31
0.0
  0
LINE
  5
C5
330
21
100
AcDbEntity
  8
0
370
    -3
100
AcDbLine
 10
-89.00000000002183
 20
63.74999999999909
 30
0.0
 11
-89.00000000002183
 21
74.99047538304876
 31
0.0
  0
LINE
  5
C6
330
21
100
AcDbEntity
  8
0
370
    -3
100
AcDbLine
 10
-89.00000000002183
 20
48.74999999999955
 30
0.0
 11
-89.00000000002183
 21
63.66000000000076
 31
0.0
  0
LINE
  5
C7
330
21
100
AcDbEntity
  8
0
370
    -3
100
AcDbLine
 10
-89.00000000002183
 20
63.66000000000076
 30
0.0
 11
-89.00000000002183
 21
63.74999999999909
 31
0.0
  0
LINE
  5
C8
330
21
100
AcDbEntity
  8
0
370
    -3
100
AcDbLine
 10
-89.00000000002183
 20
3.749999999999545
 30
0.0
 11
-89.00000000002183
 21
3.815719961619834
 31
0.0
  0
LINE
  5
C9
330
21
100
AcDbEntity
  8
0
370
    -3
100
AcDbLine
 10
-89.00000000002183
 20
3.815719961619834
 30
0.0
 11
-89.00000000002183
 21
4.115300109926466
 31
0.0
  0
LINE
  5
CA
330
21
100
AcDbEntity
  8
0
370
    -3
100
AcDbLine
 10
-89.00000000002183
 20
4.115300109926466
 30
0.0
 11
-89.00000000002183
 21
18.74999999999955
 31
0.0
  0
LINE
  5
CB
330
21
100
AcDbEntity
  8
0
370
    -3
100
AcDbLine
 10
-89.00000000002183
 20
33.74999999999955
 30
0.0
 11
-89.00000000002183
 21
48.66000000000076
 31
0.0
  0
LINE
  5
CC
330
21
100
AcDbEntity
  8
0
370
    -3
100
AcDbLine
 10
-89.00000000002183
 20
48.66000000000076
 30
0.0
 11
-89.00000000002183
 21
48.74999999999955
 31
0.0
  0
LINE
  5
CD
330
21
100
AcDbEntity
  8
0
370
    -3
100
AcDbLine
 10
-89.00000000002183
 20
18.74999999999955
 30
0.0
 11
-89.00000000002183
 21
33.66000000000076
 31
0.0
  0
LINE
  5
CE
330
21
100
AcDbEntity
  8
0
370
    -3
100
AcDbLine
 10
-89.00000000002183
 20
33.66000000000076
 30
0.0
 11
-89.00000000002183
 21
33.74999999999955
 31
0.0
  0
LINE
  5
CF
330
21
100
AcDbEntity
  8
0
370
    -3
100
AcDbLine
 10
-89.00000000002183
 20
0.0095246169498751
 30
0.0
 11
-89.00000000002183
 21
3.749999999999545
 31
0.0
  0
LINE
  5
D0
330
21
100
AcDbEntity
  8
0
370
    -3
100
AcDbLine
 10
86.8499999999949
 20
56.65999999999804
 30
0.0
 11
86.8499999999949
 21
55.65999999999804
 31
0.0
  0
LINE
  5
D1
330
21
100
AcDbEntity
  8
0
370
    -3
100
AcDbLine
 10
84.99999999999454
 20
54.80999999999813
 30
0.0
 11
84.99999999999454
 21
55.65999999999804
 31
0.0
  0
LINE
  5
D2
330
21
100
AcDbEntity
  8
0
370
    -3
100
AcDbLine
 10
85.99999999999454
 20
56.65999999999804
 30
0.0
 11
86.8499999999949
 21
56.65999999999804
 31
0.0
  0
LINE
  5
D3
330
21
100
AcDbEntity
  8
0
370
    -3
100
AcDbLine
 10
84.99999999999454
 20
56.65999999999804
 30
0.0
 11
84.99999999999454
 21
57.50999999999794
 31
0.0
  0
LINE
  5
D4
330
21
100
AcDbEntity
  8
0
370
    -3
100
AcDbLine
 10
85.99999999999454
 20
57.50999999999794
 30
0.0
 11
85.99999999999454
 21
56.65999999999804
 31
0.0
  0
LINE
  5
D5
330
21
100
AcDbEntity
  8
0
370
    -3
100
AcDbLine
 10
86.8499999999949
 20
55.65999999999804
 30
0.0
 11
85.99999999999454
 21
55.65999999999804
 31
0.0
  0
LINE
  5
D6
330
21
100
AcDbEntity
  8
0
370
    -3
100
AcDbLine
 10
84.149999999996
 20
55.65999999999804
 30
0.0
 11
84.149999999996
 21
56.65999999999804
 31
0.0
  0
LINE
  5
D7
330
21
100
AcDbEntity
  8
0
370
    -3
100
AcDbLine
 10
85.99999999999454
 20
55.65999999999804
 30
0.0
 11
85.99999999999454
 21
54.80999999999813
 31
0.0
  0
LINE
  5
D8
330
21
100
AcDbEntity
  8
0
370
    -3
100
AcDbLine
 10
84.99999999999454
 20
57.50999999999794
 30
0.0
 11
85.99999999999454
 21
57.50999999999794
 31
0.0
  0
CIRCLE
  5
D9
330
21
100
AcDbEntity
  8
0
370
    -3
100
AcDbCircle
 10
-85.49999999999454
 20
56.15999999999804
 30
-0.000000000000015
 40
1.95
210
-2.122165852816759E-16
220
5.555813017067551E-17
230
-1.0
  0
LINE
  5
DA
330
21
100
AcDbEntity
  8
0
370
    -3
100
AcDbLine
 10
84.99999999999454
 20
55.65999999999804
 30
0.0
 11
84.149999999996
 21
55.65999999999804
 31
0.0
  0
LINE
  5
DB
330
21
100
AcDbEntity
  8
0
370
    -3
100
AcDbLine
 10
85.99999999999454
 20
54.80999999999813
 30
0.0
 11
84.99999999999454
 21
54.80999999999813
 31
0.0
  0
LINE
  5
DC
330
21
100
AcDbEntity
  8
0
370
    -3
100
AcDbLine
 10
84.149999999996
 20
56.65999999999804
 30
0.0
 11
84.99999999999454
 21
56.65999999999804
 31
0.0
  0
ARC
  5
DD
330
21
100
AcDbEntity
  8
0
370
    -3
100
AcDbCircle
 10
85.49999999999454
 20
56.15999999999804
 30
0.0
 40
2.75
100
AcDbArc
 50
0.0
 51
180.0
  0
ARC
  5
DE
330
21
100
AcDbEntity
  8
0
370
    -3
100
AcDbCircle
 10
85.49999999999454
 20
56.15999999999804
 30
0.0
 40
2.75
100
AcDbArc
 50
180.0
 51
0.0
  0
LINE
  5
DF
330
21
100
AcDbEntity
  8
0
370
    -3
100
AcDbLine
 10
84.99999999999454
 20
55.30999999999813
 30
0.0
 11
85.99999999999454
 21
55.30999999999813
 31
0.0
  0
LINE
  5
E0
330
21
100
AcDbEntity
  8
0
370
    -3
100
AcDbLine
 10
85.99999999999454
 20
57.00999999999794
 30
0.0
 11
84.99999999999454
 21
57.00999999999794
 31
0.0
  0
LINE
  5
E1
330
21
100
AcDbEntity
  8
0
370
    -3
100
AcDbLine
 10
84.649999999996
 20
56.65999999999804
 30
0.0
 11
84.649999999996
 21
55.65999999999804
 31
0.0
  0
LINE
  5
E2
330
21
100
AcDbEntity
  8
0
370
    -3
100
AcDbLine
 10
86.3499999999949
 20
55.65999999999804
 30
0.0
 11
86.3499999999949
 21
56.65999999999804
 31
0.0
  0
LINE
  5
E3
330
21
100
AcDbEntity
  8
0
370
    -3
100
AcDbLine
 10
82.5
 20
29.69786796564358
 30
0.0
 11
87.10902019122659
 21
29.69786796564358
 31
0.0
  0
LINE
  5
E4
330
21
100
AcDbEntity
  8
0
370
    -3
100
AcDbLine
 10
82.49999999999818
 20
29.70000000000027
 30
0.0
 11
82.5
 21
29.69786796564358
 31
0.0
  0
LINE
  5
E5
330
21
100
AcDbEntity
  8
0
370
    -3
100
AcDbLine
 10
87.27709652835074
 20
29.8978679656434
 30
0.0
 11
82.5
 21
29.8978679656434
 31
0.0
  0
ARC
  5
E6
330
21
100
AcDbEntity
  8
0
370
    -3
100
AcDbCircle
 10
87.10902019122659
 20
29.99786796564331
 30
0.0
 40
0.300000000000001
100
AcDbArc
 50
270.0
 51
329.416236236336
  0
ARC
  5
E7
330
21
100
AcDbEntity
  8
0
370
    -3
100
AcDbCircle
 10
94.03125
 20
33.65999999999804
 30
0.0
 40
7.73125000000009
100
AcDbArc
 50
150.1371656437341
 51
209.1182507056454
  0
LINE
  5
E8
330
21
100
AcDbEntity
  8
0
370
    -3
100
AcDbLine
 10
87.49999999999818
 20
37.40999999999758
 30
0.0
 11
87.32655601659644
 21
37.50958506223787
 31
0.0
  0
ARC
  5
E9
330
21
100
AcDbEntity
  8
0
370
    -3
100
AcDbCircle
 10
94.03125
 20
33.65999999999804
 30
0.0
 40
7.531250000000081
100
AcDbArc
 50
150.1371656437438
 51
207.8806024096441
  0
ARC
  5
EA
330
21
100
AcDbEntity
  8
0
370
    -3
100
AcDbCircle
 10
94.03125
 20
48.65999999999804
 30
0.0
 40
7.73125000000009
100
AcDbArc
 50
150.1371656437341
 51
209.8628343562659
  0
LINE
  5
EB
330
21
100
AcDbEntity
  8
0
370
    -3
100
AcDbLine
 10
87.49999999999818
 20
52.40999999999758
 30
0.0
 11
87.32655601659644
 21
52.50958506223878
 31
0.0
  0
ARC
  5
EC
330
21
100
AcDbEntity
  8
0
370
    -3
100
AcDbCircle
 10
94.03125
 20
48.65999999999804
 30
0.0
 40
7.531250000000081
100
AcDbArc
 50
150.1371656437279
 51
209.8628343562781
  0
LINE
  5
ED
330
21
100
AcDbEntity
  8
0
370
    -3
100
AcDbLine
 10
87.5
 20
44.90999999999758
 30
0.0
 11
87.32655601659644
 21
44.81041493775683
 31
0.0
  0
ARC
  5
EE
330
21
100
AcDbEntity
  8
0
370
    -3
100
AcDbCircle
 10
80.96875
 20
56.15999999999804
 30
0.0
 40
7.531250000000041
100
AcDbArc
 50
330.1371656437189
 51
336.5255396457874
  0
ARC
  5
EF
330
21
100
AcDbEntity
  8
0
370
    -3
100
AcDbCircle
 10
80.96875
 20
56.15999999999804
 30
0.0
 40
7.331250000000042
100
AcDbArc
 50
330.1371656437152
 51
335.8449603704665
  0
ARC
  5
F0
330
21
100
AcDbEntity
  8
0
370
    -3
100
AcDbCircle
 10
80.96875
 20
41.15999999999804
 30
0.0
 40
7.33125000000004
100
AcDbArc
 50
330.137165643712
 51
29.86283435628485
  0
LINE
  5
F1
330
21
100
AcDbEntity
  8
0
370
    -3
100
AcDbLine
 10
82.49999999999636
 20
31.30000000000018
 30
0.0
 11
82.49999999999454
 21
53.15999999999804
 31
0.0
  0
LINE
  5
F2
330
21
100
AcDbEntity
  8
0
370
    -3
100
AcDbLine
 10
87.65808678046596
 20
53.15999999999804
 30
0.0
 11
82.49999999999454
 21
53.15999999999804
 31
0.0
  0
ARC
  5
F3
330
21
100
AcDbEntity
  8
0
370
    -3
100
AcDbCircle
 10
94.03125
 20
63.65999999999804
 30
0.0
 40
7.73125000000009
100
AcDbArc
 50
150.1371656437341
 51
209.8628343562659
  0
LINE
  5
F4
330
21
100
AcDbEntity
  8
0
370
    -3
100
AcDbLine
 10
87.49999999999818
 20
67.40999999999713
 30
0.0
 11
87.32655601659644
 21
67.50958506223787
 31
0.0
  0
ARC
  5
F5
330
21
100
AcDbEntity
  8
0
370
    -3
100
AcDbCircle
 10
94.03125
 20
63.65999999999804
 30
0.0
 40
7.531250000000081
100
AcDbArc
 50
150.1371656437468
 51
209.8628343562781
  0
LINE
  5
F6
330
21
100
AcDbEntity
  8
0
370
    -3
100
AcDbLine
 10
87.5
 20
59.90999999999758
 30
0.0
 11
87.32655601659644
 21
59.81041493775729
 31
0.0
  0
LINE
  5
F7
330
21
100
AcDbEntity
  8
0
370
    -3
100
AcDbLine
 10
82.49999999999454
 20
59.15999999999804
 30
0.0
 11
82.49999999999636
 21
73.69999999999982
 31
0.0
  0
LINE
  5
F8
330
21
100
AcDbEntity
  8
0
370
    -3
100
AcDbLine
 10
82.5
 20
74.92213203435495
 30
0.0
 11
87.26363818829486
 21
74.92213203435495
 31
0.0
  0
ARC
  5
F9
330
21
100
AcDbEntity
  8
0
370
    -3
100
AcDbCircle
 10
94.03125
 20
78.65999999999804
 30
0.0
 40
7.73125000000006
100
AcDbArc
 50
208.9126226371665
 51
209.8628343562659
  0
ARC
  5
FA
330
21
100
AcDbEntity
  8
0
370
    -3
100
AcDbCircle
 10
80.96875
 20
71.15999999999804
 30
0.0
 40
7.33125000000004
100
AcDbArc
 50
330.137165643712
 51
29.86283435628485
  0
ARC
  5
FB
330
21
100
AcDbEntity
  8
0
370
    -3
100
AcDbCircle
 10
80.96875
 20
56.15999999999804
 30
0.0
 40
7.331250000000042
100
AcDbArc
 50
24.15503962953353
 51
29.86283435628485
  0
LINE
  5
FC
330
21
100
AcDbEntity
  8
0
370
    -3
100
AcDbLine
 10
82.49999999999454
 20
59.15999999999804
 30
0.0
 11
87.65808678046596
 21
59.15999999999804
 31
0.0
  0
ARC
  5
FD
330
21
100
AcDbEntity
  8
0
370
    -3
100
AcDbCircle
 10
80.96875
 20
56.15999999999804
 30
0.0
 40
7.531250000000041
100
AcDbArc
 50
23.47446035420941
 51
29.8628343562721
  0
LINE
  5
FE
330
21
100
AcDbEntity
  8
0
370
    -3
100
AcDbLine
 10
87.5
 20
74.90999999999713
 30
0.0
 11
87.32655601659644
 21
74.81041493775683
 31
0.0
  0
ARC
  5
FF
330
21
100
AcDbEntity
  8
0
370
    -3
100
AcDbCircle
 10
80.96875
 20
71.15999999999804
 30
0.0
 40
7.531250000000041
100
AcDbArc
 50
330.137165643703
 51
29.8628343562721
  0
LINE
  5
100
330
21
100
AcDbEntity
  8
0
370
    -3
100
AcDbLine
 10
87.382700021235
 20
75.12213203436204
 30
0.0
 11
82.49999999999454
 21
75.12213203435476
 31
0.0
  0
ARC
  5
101
330
21
100
AcDbEntity
  8
0
370
    -3
100
AcDbCircle
 10
94.03125
 20
78.65999999999804
 30
0.0
 40
7.53125000000005
100
AcDbArc
 50
208.0186150354061
 51
209.8628343562811
  0
ARC
  5
102
330
21
100
AcDbEntity
  8
0
370
    -3
100
AcDbCircle
 10
80.96875
 20
41.15999999999804
 30
0.0
 40
7.531250000000041
100
AcDbArc
 50
330.1371656437189
 51
29.8628343562721
  0
ARC
  5
103
330
21
100
AcDbEntity
  8
0
370
    -3
100
AcDbCircle
 10
80.96875
 20
56.15999999999804
 30
0.0
 40
7.531250000000041
100
AcDbArc
 50
336.5255396457874
 51
23.47446035420941
  0
ARC
  5
104
330
21
100
AcDbEntity
  8
0
370
    -3
100
AcDbCircle
 10
-94.53125000000182
 20
71.16000000000076
 30
0.0
 40
7.73125000000009
100
AcDbArc
 50
330.1371656437341
 51
29.11825070564536
  0
LINE
  5
105
330
21
100
AcDbEntity
  8
0
370
    -3
100
AcDbLine
 10
-88.00000000000182
 20
67.41000000000213
 30
0.0
 11
-87.82655601659826
 21
67.31041493776092
 31
0.0
  0
ARC
  5
106
330
21
100
AcDbEntity
  8
0
370
    -3
100
AcDbCircle
 10
-94.53125000000182
 20
71.16000000000076
 30
0.0
 40
7.531250000000081
100
AcDbArc
 50
330.1371656437438
 51
27.88060240964415
  0
LINE
  5
107
330
21
100
AcDbEntity
  8
0
370
    -3
100
AcDbLine
 10
-83.00000000000182
 20
75.12213203435613
 30
0.0
 11
-87.60902019122841
 21
75.12213203435613
 31
0.0
  0
LINE
  5
108
330
21
100
AcDbEntity
  8
0
370
    -3
100
AcDbLine
 10
-83.00000000000182
 20
74.92213203435585
 30
0.0
 11
-83.00000000000182
 21
75.12213203435613
 31
0.0
  0
LINE
  5
109
330
21
100
AcDbEntity
  8
0
370
    -3
100
AcDbLine
 10
-87.77709652835256
 20
74.92213203435585
 30
0.0
 11
-83.00000000000182
 21
74.92213203435585
 31
0.0
  0
ARC
  5
10A
330
21
100
AcDbEntity
  8
0
370
    -3
100
AcDbCircle
 10
-87.60902019122841
 20
74.82213203435595
 30
0.0
 40
0.300000000000001
100
AcDbArc
 50
90.0
 51
149.416236236737
  0
ARC
  5
10B
330
21
100
AcDbEntity
  8
0
370
    -3
100
AcDbCircle
 10
-81.46875000000182
 20
48.66000000000076
 30
0.0
 40
7.531250000000041
100
AcDbArc
 50
150.1371656437219
 51
156.5255396457874
  0
LINE
  5
10C
330
21
100
AcDbEntity
  8
0
370
    -3
100
AcDbLine
 10
-88.00000000000182
 20
52.41000000000167
 30
0.0
 11
-87.82655601659826
 21
52.31041493776047
 31
0.0
  0
ARC
  5
10D
330
21
100
AcDbEntity
  8
0
370
    -3
100
AcDbCircle
 10
-81.46875000000182
 20
48.66000000000076
 30
0.0
 40
7.331250000000044
100
AcDbArc
 50
150.1371656437121
 51
155.8449603704665
  0
ARC
  5
10E
330
21
100
AcDbEntity
  8
0
370
    -3
100
AcDbCircle
 10
-94.53125000000182
 20
41.16000000000076
 30
0.0
 40
7.73125000000009
100
AcDbArc
 50
330.1371656437341
 51
29.86283435626586
  0
LINE
  5
10F
330
21
100
AcDbEntity
  8
0
370
    -3
100
AcDbLine
 10
-88.00000000000182
 20
37.41000000000167
 30
0.0
 11
-87.82655601659826
 21
37.31041493776092
 31
0.0
  0
ARC
  5
110
330
21
100
AcDbEntity
  8
0
370
    -3
100
AcDbCircle
 10
-94.53125000000182
 20
41.16000000000076
 30
0.0
 40
7.531250000000081
100
AcDbArc
 50
330.1371656437279
 51
29.86283435627811
  0
LINE
  5
111
330
21
100
AcDbEntity
  8
0
370
    -3
100
AcDbLine
 10
-88.00000000000182
 20
44.91000000000122
 30
0.0
 11
-87.82655601659826
 21
45.00958506224151
 31
0.0
  0
LINE
  5
112
330
21
100
AcDbEntity
  8
0
370
    -3
100
AcDbLine
 10
-88.15808678046778
 20
51.66000000000076
 30
0.0
 11
-82.99999999999818
 21
51.66000000000076
 31
0.0
  0
LINE
  5
113
330
21
100
AcDbEntity
  8
0
370
    -3
100
AcDbLine
 10
-83.00000000000182
 20
74.92213203435585
 30
0.0
 11
-83.00000000000364
 21
74.8645751311119
 31
0.0
  0
LINE
  5
114
330
21
100
AcDbEntity
  8
0
370
    -3
100
AcDbLine
 10
-83.00000000000364
 20
73.53542486888773
 30
0.0
 11
-82.99999999999818
 21
51.66000000000076
 31
0.0
  0
LINE
  5
115
330
21
100
AcDbEntity
  8
0
370
    -3
100
AcDbLine
 10
-82.99999999999636
 20
29.69786796564404
 30
0.0
 11
-83.00000000000182
 21
29.89786796564385
 31
0.0
  0
LINE
  5
116
330
21
100
AcDbEntity
  8
0
370
    -3
100
AcDbLine
 10
-82.99999999999818
 20
45.66000000000167
 30
0.0
 11
-83.00000000000364
 21
31.46457513111227
 31
0.0
  0
LINE
  5
117
330
21
100
AcDbEntity
  8
0
370
    -3
100
AcDbLine
 10
-83.00000000000364
 20
30.13542486888809
 30
0.0
 11
-83.00000000000182
 21
29.89786796564385
 31
0.0
  0
ARC
  5
118
330
21
100
AcDbEntity
  8
0
370
    -3
100
AcDbCircle
 10
-81.46875000000182
 20
48.66000000000076
 30
0.0
 40
7.331250000000044
100
AcDbArc
 50
204.1550396295335
 51
209.8628343562848
  0
ARC
  5
119
330
21
100
AcDbEntity
  8
0
370
    -3
100
AcDbCircle
 10
-81.46875000000182
 20
48.66000000000076
 30
0.0
 40
7.531250000000041
100
AcDbArc
 50
203.4744603542062
 51
209.8628343562721
  0
LINE
  5
11A
330
21
100
AcDbEntity
  8
0
370
    -3
100
AcDbLine
 10
-83.00000000000182
 20
29.89786796564385
 30
0.0
 11
-87.76363818829668
 21
29.89786796564385
 31
0.0
  0
ARC
  5
11B
330
21
100
AcDbEntity
  8
0
370
    -3
100
AcDbCircle
 10
-94.53125000000182
 20
26.16000000000076
 30
0.0
 40
7.73125000000006
100
AcDbArc
 50
28.91262263716656
 51
29.86283435628426
  0
ARC
  5
11C
330
21
100
AcDbEntity
  8
0
370
    -3
100
AcDbCircle
 10
-81.46875000000182
 20
33.66000000000076
 30
0.0
 40
7.33125000000004
100
AcDbArc
 50
150.1371656437121
 51
209.8628343562685
  0
LINE
  5
11D
330
21
100
AcDbEntity
  8
0
370
    -3
100
AcDbLine
 10
-82.99999999999818
 20
45.66000000000167
 30
0.0
 11
-88.15808678046778
 21
45.66000000000167
 31
0.0
  0
LINE
  5
11E
330
21
100
AcDbEntity
  8
0
370
    -3
100
AcDbLine
 10
-88.00000000000182
 20
29.91000000000167
 30
0.0
 11
-87.82655601659826
 21
30.00958506224242
 31
0.0
  0
ARC
  5
11F
330
21
100
AcDbEntity
  8
0
370
    -3
100
AcDbCircle
 10
-81.46875000000182
 20
33.66000000000076
 30
0.0
 40
7.531250000000041
100
AcDbArc
 50
150.1371656437189
 51
209.8628343562721
  0
LINE
  5
120
330
21
100
AcDbEntity
  8
0
370
    -3
100
AcDbLine
 10
-87.88270002123681
 20
29.69786796563676
 30
0.0
 11
-82.99999999999636
 21
29.69786796564404
 31
0.0
  0
ARC
  5
121
330
21
100
AcDbEntity
  8
0
370
    -3
100
AcDbCircle
 10
-94.53125000000182
 20
56.16000000000076
 30
0.0
 40
7.73125000000009
100
AcDbArc
 50
330.1371656437341
 51
29.86283435628135
  0
ARC
  5
122
330
21
100
AcDbEntity
  8
0
370
    -3
100
AcDbCircle
 10
-81.46875000000182
 20
63.66000000000076
 30
0.0
 40
7.33125000000004
100
AcDbArc
 50
150.1371656437121
 51
209.8628343562685
  0
ARC
  5
123
330
21
100
AcDbEntity
  8
0
370
    -3
100
AcDbCircle
 10
-94.53125000000182
 20
56.16000000000076
 30
0.0
 40
7.531250000000081
100
AcDbArc
 50
330.1371656437279
 51
29.86283435628111
  0
LINE
  5
124
330
21
100
AcDbEntity
  8
0
370
    -3
100
AcDbLine
 10
-88.00000000000182
 20
59.91000000000213
 30
0.0
 11
-87.82655601659826
 21
60.00958506224197
 31
0.0
  0
ARC
  5
125
330
21
100
AcDbEntity
  8
0
370
    -3
100
AcDbCircle
 10
-81.46875000000182
 20
63.66000000000076
 30
0.0
 40
7.531250000000041
100
AcDbArc
 50
150.1371656437189
 51
209.8628343562721
  0
ARC
  5
126
330
21
100
AcDbEntity
  8
0
370
    -3
100
AcDbCircle
 10
-94.53125000000182
 20
26.16000000000076
 30
0.0
 40
7.53125000000005
100
AcDbArc
 50
28.01861503540911
 51
29.86283435628111
  0
ARC
  5
127
330
21
100
AcDbEntity
  8
0
370
    -3
100
AcDbCircle
 10
-81.46875000000182
 20
48.66000000000076
 30
0.0
 40
7.531250000000041
100
AcDbArc
 50
156.5255396457874
 51
203.4744603542062
  0
LINE
  5
128
330
21
100
AcDbEntity
  8
0
370
    -3
100
AcDbLine
 10
-87.35000000000036
 20
49.16000000000076
 30
0.0
 11
-86.5
 21
49.16000000000076
 31
0.0
  0
LINE
  5
129
330
21
100
AcDbEntity
  8
0
370
    -3
100
AcDbLine
 10
-85.5
 20
48.16000000000076
 30
0.0
 11
-85.5
 21
47.31000000000131
 31
0.0
  0
LINE
  5
12A
330
21
100
AcDbEntity
  8
0
370
    -3
100
AcDbLine
 10
-85.5
 20
47.31000000000131
 30
0.0
 11
-86.5
 21
47.31000000000131
 31
0.0
  0
LINE
  5
12B
330
21
100
AcDbEntity
  8
0
370
    -3
100
AcDbLine
 10
-86.5
 20
48.16000000000076
 30
0.0
 11
-87.35000000000036
 21
48.16000000000076
 31
0.0
  0
LINE
  5
12C
330
21
100
AcDbEntity
  8
0
370
    -3
100
AcDbLine
 10
-85.5
 20
50.01000000000113
 30
0.0
 11
-85.5
 21
49.16000000000076
 31
0.0
  0
LINE
  5
12D
330
21
100
AcDbEntity
  8
0
370
    -3
100
AcDbLine
 10
-84.64999999999964
 20
49.16000000000076
 30
0.0
 11
-84.64999999999964
 21
48.16000000000076
 31
0.0
  0
CIRCLE
  5
12E
330
21
100
AcDbEntity
  8
0
370
    -3
100
AcDbCircle
 10
86.0
 20
48.66000000000122
 30
0.000000000000021
 40
1.95
210
-2.122165852816759E-16
220
5.555813017067551E-17
230
-1.0
  0
LINE
  5
12F
330
21
100
AcDbEntity
  8
0
370
    -3
100
AcDbLine
 10
-87.35000000000036
 20
48.16000000000076
 30
0.0
 11
-87.35000000000036
 21
49.16000000000076
 31
0.0
  0
LINE
  5
130
330
21
100
AcDbEntity
  8
0
370
    -3
100
AcDbLine
 10
-86.5
 20
47.31000000000131
 30
0.0
 11
-86.5
 21
48.16000000000076
 31
0.0
  0
LINE
  5
131
330
21
100
AcDbEntity
  8
0
370
    -3
100
AcDbLine
 10
-84.64999999999964
 20
48.16000000000076
 30
0.0
 11
-85.5
 21
48.16000000000076
 31
0.0
  0
LINE
  5
132
330
21
100
AcDbEntity
  8
0
370
    -3
100
AcDbLine
 10
-85.5
 20
49.16000000000076
 30
0.0
 11
-84.64999999999964
 21
49.16000000000076
 31
0.0
  0
LINE
  5
133
330
21
100
AcDbEntity
  8
0
370
    -3
100
AcDbLine
 10
-86.5
 20
50.01000000000113
 30
0.0
 11
-85.5
 21
50.01000000000113
 31
0.0
  0
LINE
  5
134
330
21
100
AcDbEntity
  8
0
370
    -3
100
AcDbLine
 10
-86.5
 20
49.16000000000076
 30
0.0
 11
-86.5
 21
50.01000000000113
 31
0.0
  0
ARC
  5
135
330
21
100
AcDbEntity
  8
0
370
    -3
100
AcDbCircle
 10
-86.0
 20
48.66000000000122
 30
0.0
 40
2.75
100
AcDbArc
 50
0.0
 51
180.0
  0
ARC
  5
136
330
21
100
AcDbEntity
  8
0
370
    -3
100
AcDbCircle
 10
-86.0
 20
48.66000000000122
 30
0.0
 40
2.75
100
AcDbArc
 50
180.0
 51
0.0
  0
LINE
  5
137
330
21
100
AcDbEntity
  8
0
370
    -3
100
AcDbLine
 10
-85.14999999999964
 20
48.16000000000076
 30
0.0
 11
-85.14999999999964
 21
49.16000000000076
 31
0.0
  0
LINE
  5
138
330
21
100
AcDbEntity
  8
0
370
    -3
100
AcDbLine
 10
-86.85000000000036
 20
49.16000000000076
 30
0.0
 11
-86.85000000000036
 21
48.16000000000076
 31
0.0
  0
LINE
  5
139
330
21
100
AcDbEntity
  8
0
370
    -3
100
AcDbLine
 10
-86.5
 20
47.81000000000085
 30
0.0
 11
-85.5
 21
47.81000000000085
 31
0.0
  0
LINE
  5
13A
330
21
100
AcDbEntity
  8
0
370
    -3
100
AcDbLine
 10
-85.5
 20
49.51000000000113
 30
0.0
 11
-86.5
 21
49.51000000000113
 31
0.0
  0
LINE
  5
13B
330
21
100
AcDbEntity
  8
0
370
    -3
100
AcDbLine
 10
74.10955022000053
 20
2.752824784067798
 30
0.0
 11
74.10955022000053
 21
8.252824784067798
 31
0.0
  0
LINE
  5
13C
330
21
100
AcDbEntity
  8
0
370
    -3
100
AcDbLine
 10
74.10955022000053
 20
8.252824784067798
 30
0.0
 11
74.10955022000053
 21
16.2528247840678
 31
0.0
  0
LINE
  5
13D
330
21
100
AcDbEntity
  8
0
370
    -3
100
AcDbLine
 10
74.10955022000053
 20
16.2528247840678
 30
0.0
 11
74.10955022000053
 21
19.7528247840678
 31
0.0
  0
LINE
  5
13E
330
21
100
AcDbEntity
  8
0
370
    -3
100
AcDbLine
 10
74.10955022000053
 20
19.7528247840678
 30
0.0
 11
74.10955022000053
 21
23.7528247840678
 31
0.0
  0
LINE
  5
13F
330
21
100
AcDbEntity
  8
0
370
    -3
100
AcDbLine
 10
74.10955022000053
 20
23.7528247840678
 30
0.0
 11
69.10955022000053
 21
23.7528247840678
 31
0.0
  0
LINE
  5
140
330
21
100
AcDbEntity
  8
0
370
    -3
100
AcDbLine
 10
74.10955022000053
 20
19.7528247840678
 30
0.0
 11
69.10955022000053
 21
19.7528247840678
 31
0.0
  0
LINE
  5
141
330
21
100
AcDbEntity
  8
0
370
    -3
100
AcDbLine
 10
69.10955022000053
 20
23.7528247840678
 30
0.0
 11
69.10955022000053
 21
19.7528247840678
 31
0.0
  0
LINE
  5
142
330
21
100
AcDbEntity
  8
0
370
    -3
100
AcDbLine
 10
69.10955022000053
 20
19.7528247840678
 30
0.0
 11
69.10955022000053
 21
16.2528247840678
 31
0.0
  0
LINE
  5
143
330
21
100
AcDbEntity
  8
0
370
    -3
100
AcDbLine
 10
69.10955022000053
 20
16.2528247840678
 30
0.0
 11
69.10955022000053
 21
8.252824784067798
 31
0.0
  0
LINE
  5
144
330
21
100
AcDbEntity
  8
0
370
    -3
100
AcDbLine
 10
69.10955022000053
 20
8.252824784067798
 30
0.0
 11
69.10955022000053
 21
2.752824784067798
 31
0.0
  0
LINE
  5
145
330
21
100
AcDbEntity
  8
0
370
    -3
100
AcDbLine
 10
74.10955022000053
 20
16.2528247840678
 30
0.0
 11
69.10955022000053
 21
16.2528247840678
 31
0.0
  0
LINE
  5
146
330
21
100
AcDbEntity
  8
0
370
    -3
100
AcDbLine
 10
74.10955022000053
 20
8.252824784067798
 30
0.0
 11
69.10955022000053
 21
8.252824784067798
 31
0.0
  0
LINE
  5
147
330
21
100
AcDbEntity
  8
0
370
    -3
100
AcDbLine
 10
69.85955022000053
 20
15.53682464444773
 30
0.0
 11
73.35955022000053
 21
15.53682464444773
 31
0.0
  0
LINE
  5
148
330
21
100
AcDbEntity
  8
0
370
    -3
100
AcDbLine
 10
69.85955022000053
 20
13.7468242953978
 30
0.0
 11
69.85955022000053
 21
15.53682464444773
 31
0.0
  0
LINE
  5
149
330
21
100
AcDbEntity
  8
0
370
    -3
100
AcDbLine
 10
73.35955022000053
 20
13.7468242953978
 30
0.0
 11
69.85955022000053
 21
13.7468242953978
 31
0.0
  0
LINE
  5
14A
330
21
100
AcDbEntity
  8
0
370
    -3
100
AcDbLine
 10
73.35955022000053
 20
15.53682464444773
 30
0.0
 11
73.35955022000053
 21
13.7468242953978
 31
0.0
  0
LINE
  5
14B
330
21
100
AcDbEntity
  8
0
370
    -3
100
AcDbLine
 10
70.60955022000053
 20
11.83287463788747
 30
0.0
 11
69.60955022000053
 21
11.83287463788747
 31
0.0
  0
LINE
  5
14C
330
21
100
AcDbEntity
  8
0
370
    -3
100
AcDbLine
 10
69.60955022000053
 20
11.83287463788747
 30
0.0
 11
69.60955022000053
 21
8.682437156767719
 31
0.0
  0
LINE
  5
14D
330
21
100
AcDbEntity
  8
0
370
    -3
100
AcDbLine
 10
69.60955022000053
 20
8.682437156767719
 30
0.0
 11
73.60955022000053
 21
8.682437156767719
 31
0.0
  0
LINE
  5
14E
330
21
100
AcDbEntity
  8
0
370
    -3
100
AcDbLine
 10
73.60955022000053
 20
8.682437156767719
 30
0.0
 11
73.60955022000053
 21
11.83287463788747
 31
0.0
  0
LINE
  5
14F
330
21
100
AcDbEntity
  8
0
370
    -3
100
AcDbLine
 10
73.60955022000053
 20
11.83287463788747
 30
0.0
 11
72.60955022000053
 21
11.83287463788747
 31
0.0
  0
ARC
  5
150
330
21
100
AcDbEntity
  8
0
370
    -3
100
AcDbCircle
 10
71.60955022000053
 20
11.83287463788747
 30
0.0
 40
1.0
100
AcDbArc
 50
0.0
 51
180.0
  0
LINE
  5
151
330
21
100
AcDbEntity
  8
0
370
    -3
100
AcDbLine
 10
70.60953305698058
 20
11.74441017677782
 30
0.0
 11
69.60955022000053
 21
8.682437156767719
 31
0.0
  0
LINE
  5
152
330
21
100
AcDbEntity
  8
0
370
    -3
100
AcDbLine
 10
70.60955022000053
 20
11.74445781479744
 30
0.0
 11
70.60955022000053
 21
11.83287463788747
 31
0.0
  0
LINE
  5
153
330
21
100
AcDbEntity
  8
0
370
    -3
100
AcDbLine
 10
70.60955022000053
 20
11.74445781479744
 30
0.0
 11
70.60953305698058
 21
11.74441017677782
 31
0.0
  0
LINE
  5
154
330
21
100
AcDbEntity
  8
0
370
    -3
100
AcDbLine
 10
72.60956738301138
 20
11.74441017677782
 30
0.0
 11
72.60955022000053
 21
11.74445781479744
 31
0.0
  0
LINE
  5
155
330
21
100
AcDbEntity
  8
0
370
    -3
100
AcDbLine
 10
72.60955022000053
 20
11.83287463788747
 30
0.0
 11
72.60955022000053
 21
11.74445781479744
 31
0.0
  0
LINE
  5
156
330
21
100
AcDbEntity
  8
0
370
    -3
100
AcDbLine
 10
73.60955022000053
 20
8.682437156767719
 30
0.0
 11
72.60956738301138
 21
11.74441017677782
 31
0.0
  0
LINE
  5
157
330
21
100
AcDbEntity
  8
0
370
    -3
100
AcDbLine
 10
70.60953305698058
 20
11.74441017677782
 30
0.0
 11
72.60956738301138
 21
11.74441017677782
 31
0.0
  0
LINE
  5
158
330
21
100
AcDbEntity
  8
0
370
    -3
100
AcDbLine
 10
70.60955022000053
 20
11.7484756398776
 30
0.0
 11
72.60955022000053
 21
11.7484756398776
 31
0.0
  0
LINE
  5
159
330
21
100
AcDbEntity
  8
0
370
    -3
100
AcDbLine
 10
74.10955022000053
 20
2.752824784067798
 30
0.0
 11
69.10955022000053
 21
2.752824784067798
 31
0.0
  0
LINE
  5
15A
330
21
100
AcDbEntity
  8
0
370
    -3
100
AcDbLine
 10
70.60955022000053
 20
6.065183085640456
 30
0.0
 11
69.60955022000053
 21
6.065183085640456
 31
0.0
  0
LINE
  5
15B
330
21
100
AcDbEntity
  8
0
370
    -3
100
AcDbLine
 10
69.60955022000053
 20
6.065183085640456
 30
0.0
 11
69.60955022000053
 21
3.184871519055832
 31
0.0
  0
LINE
  5
15C
330
21
100
AcDbEntity
  8
0
370
    -3
100
AcDbLine
 10
69.60955022000053
 20
3.184871519055832
 30
0.0
 11
73.60955022000053
 21
3.184871519055832
 31
0.0
  0
LINE
  5
15D
330
21
100
AcDbEntity
  8
0
370
    -3
100
AcDbLine
 10
73.60955022000053
 20
3.184871519055832
 30
0.0
 11
73.60955022000053
 21
6.065183085640456
 31
0.0
  0
LINE
  5
15E
330
21
100
AcDbEntity
  8
0
370
    -3
100
AcDbLine
 10
73.60955022000053
 20
6.065183085640456
 30
0.0
 11
72.60955022000053
 21
6.065183085640456
 31
0.0
  0
ARC
  5
15F
330
21
100
AcDbEntity
  8
0
370
    -3
100
AcDbCircle
 10
71.60955022000053
 20
6.065183085640456
 30
0.0
 40
1.0
100
AcDbArc
 50
0.0
 51
180.0
  0
LINE
  5
160
330
21
100
AcDbEntity
  8
0
370
    -3
100
AcDbLine
 10
69.60955022000053
 20
3.184871519055832
 30
0.0
 11
70.54972116017234
 21
6.065183085640456
 31
0.0
  0
LINE
  5
161
330
21
100
AcDbEntity
  8
0
370
    -3
100
AcDbLine
 10
72.66937927983054
 20
6.065183085640456
 30
0.0
 11
73.60955022000053
 21
3.184871519055832
 31
0.0
  0
LINE
  5
162
330
21
100
AcDbEntity
  8
0
370
    -3
100
AcDbLine
 10
70.62649180893823
 20
6.248475639877597
 30
0.0
 11
72.59260863106465
 21
6.248475639877597
 31
0.0
  0
LINE
  5
163
330
21
100
AcDbEntity
  8
0
370
    -3
100
AcDbLine
 10
69.10955022000053
 20
2.752824784067798
 30
0.0
 11
69.10955022000053
 21
8.252824784067798
 31
0.0
  0
LINE
  5
164
330
21
100
AcDbEntity
  8
0
370
    -3
100
AcDbLine
 10
69.10955022000053
 20
8.252824784067798
 30
0.0
 11
69.10955022000053
 21
16.2528247840678
 31
0.0
  0
LINE
  5
165
330
21
100
AcDbEntity
  8
0
370
    -3
100
AcDbLine
 10
69.10955022000053
 20
16.2528247840678
 30
0.0
 11
69.10955022000053
 21
19.7528247840678
 31
0.0
  0
LINE
  5
166
330
21
100
AcDbEntity
  8
0
370
    -3
100
AcDbLine
 10
69.10955022000053
 20
19.7528247840678
 30
0.0
 11
69.10955022000053
 21
23.7528247840678
 31
0.0
  0
LINE
  5
167
330
21
100
AcDbEntity
  8
0
370
    -3
100
AcDbLine
 10
69.10955022000053
 20
23.7528247840678
 30
0.0
 11
64.10955022000053
 21
23.7528247840678
 31
0.0
  0
LINE
  5
168
330
21
100
AcDbEntity
  8
0
370
    -3
100
AcDbLine
 10
64.10955022000053
 20
19.7528247840678
 30
0.0
 11
64.10955022000053
 21
16.2528247840678
 31
0.0
  0
LINE
  5
169
330
21
100
AcDbEntity
  8
0
370
    -3
100
AcDbLine
 10
64.10955022000053
 20
16.2528247840678
 30
0.0
 11
64.10955022000053
 21
8.252824784067798
 31
0.0
  0
LINE
  5
16A
330
21
100
AcDbEntity
  8
0
370
    -3
100
AcDbLine
 10
64.10955022000053
 20
8.252824784067798
 30
0.0
 11
64.10955022000053
 21
2.752824784067798
 31
0.0
  0
LINE
  5
16B
330
21
100
AcDbEntity
  8
0
370
    -3
100
AcDbLine
 10
64.10955022000053
 20
23.7528247840678
 30
0.0
 11
64.10955022000053
 21
19.7528247840678
 31
0.0
  0
LINE
  5
16C
330
21
100
AcDbEntity
  8
0
370
    -3
100
AcDbLine
 10
69.10955022000053
 20
19.7528247840678
 30
0.0
 11
64.10955022000053
 21
19.7528247840678
 31
0.0
  0
LINE
  5
16D
330
21
100
AcDbEntity
  8
0
370
    -3
100
AcDbLine
 10
69.10955022000053
 20
16.2528247840678
 30
0.0
 11
64.10955022000053
 21
16.2528247840678
 31
0.0
  0
LINE
  5
16E
330
21
100
AcDbEntity
  8
0
370
    -3
100
AcDbLine
 10
69.10955022000053
 20
8.252824784067798
 30
0.0
 11
64.10955022000053
 21
8.252824784067798
 31
0.0
  0
LINE
  5
16F
330
21
100
AcDbEntity
  8
0
370
    -3
100
AcDbLine
 10
64.85955022000053
 20
15.53682464444773
 30
0.0
 11
68.35955022000053
 21
15.53682464444773
 31
0.0
  0
LINE
  5
170
330
21
100
AcDbEntity
  8
0
370
    -3
100
AcDbLine
 10
64.85955022000053
 20
13.7468242953978
 30
0.0
 11
64.85955022000053
 21
15.53682464444773
 31
0.0
  0
LINE
  5
171
330
21
100
AcDbEntity
  8
0
370
    -3
100
AcDbLine
 10
68.35955022000053
 20
13.7468242953978
 30
0.0
 11
64.85955022000053
 21
13.7468242953978
 31
0.0
  0
LINE
  5
172
330
21
100
AcDbEntity
  8
0
370
    -3
100
AcDbLine
 10
68.35955022000053
 20
15.53682464444773
 30
0.0
 11
68.35955022000053
 21
13.7468242953978
 31
0.0
  0
LINE
  5
173
330
21
100
AcDbEntity
  8
0
370
    -3
100
AcDbLine
 10
65.60955022000053
 20
11.83287463788747
 30
0.0
 11
64.60955022000053
 21
11.83287463788747
 31
0.0
  0
LINE
  5
174
330
21
100
AcDbEntity
  8
0
370
    -3
100
AcDbLine
 10
64.60955022000053
 20
11.83287463788747
 30
0.0
 11
64.60955022000053
 21
8.682437156767719
 31
0.0
  0
LINE
  5
175
330
21
100
AcDbEntity
  8
0
370
    -3
100
AcDbLine
 10
64.60955022000053
 20
8.682437156767719
 30
0.0
 11
68.60955022000053
 21
8.682437156767719
 31
0.0
  0
LINE
  5
176
330
21
100
AcDbEntity
  8
0
370
    -3
100
AcDbLine
 10
68.60955022000053
 20
8.682437156767719
 30
0.0
 11
68.60955022000053
 21
11.83287463788747
 31
0.0
  0
LINE
  5
177
330
21
100
AcDbEntity
  8
0
370
    -3
100
AcDbLine
 10
68.60955022000053
 20
11.83287463788747
 30
0.0
 11
67.60955022000053
 21
11.83287463788747
 31
0.0
  0
ARC
  5
178
330
21
100
AcDbEntity
  8
0
370
    -3
100
AcDbCircle
 10
66.60955022000053
 20
11.83287463788747
 30
0.0
 40
1.0
100
AcDbArc
 50
0.0
 51
180.0
  0
LINE
  5
179
330
21
100
AcDbEntity
  8
0
370
    -3
100
AcDbLine
 10
67.60956738301138
 20
11.74441017677782
 30
0.0
 11
67.60955022000053
 21
11.74445781479744
 31
0.0
  0
LINE
  5
17A
330
21
100
AcDbEntity
  8
0
370
    -3
100
AcDbLine
 10
67.60955022000053
 20
11.83287463788747
 30
0.0
 11
67.60955022000053
 21
11.74445781479744
 31
0.0
  0
LINE
  5
17B
330
21
100
AcDbEntity
  8
0
370
    -3
100
AcDbLine
 10
68.60955022000053
 20
8.682437156767719
 30
0.0
 11
67.60956738301138
 21
11.74441017677782
 31
0.0
  0
LINE
  5
17C
330
21
100
AcDbEntity
  8
0
370
    -3
100
AcDbLine
 10
65.60953305698058
 20
11.74441017677782
 30
0.0
 11
64.60955022000053
 21
8.682437156767719
 31
0.0
  0
LINE
  5
17D
330
21
100
AcDbEntity
  8
0
370
    -3
100
AcDbLine
 10
65.60955022000053
 20
11.74445781479744
 30
0.0
 11
65.60955022000053
 21
11.83287463788747
 31
0.0
  0
LINE
  5
17E
330
21
100
AcDbEntity
  8
0
370
    -3
100
AcDbLine
 10
65.60955022000053
 20
11.74445781479744
 30
0.0
 11
65.60953305698058
 21
11.74441017677782
 31
0.0
  0
LINE
  5
17F
330
21
100
AcDbEntity
  8
0
370
    -3
100
AcDbLine
 10
65.60953305698058
 20
11.74441017677782
 30
0.0
 11
67.60956738301138
 21
11.74441017677782
 31
0.0
  0
LINE
  5
180
330
21
100
AcDbEntity
  8
0
370
    -3
100
AcDbLine
 10
65.60955022000053
 20
11.7484756398776
 30
0.0
 11
67.60955022000053
 21
11.7484756398776
 31
0.0
  0
LINE
  5
181
330
21
100
AcDbEntity
  8
0
370
    -3
100
AcDbLine
 10
69.10955022000053
 20
2.752824784067798
 30
0.0
 11
64.10955022000053
 21
2.752824784067798
 31
0.0
  0
LINE
  5
182
330
21
100
AcDbEntity
  8
0
370
    -3
100
AcDbLine
 10
65.60955022000053
 20
6.065183085640456
 30
0.0
 11
64.60955022000053
 21
6.065183085640456
 31
0.0
  0
LINE
  5
183
330
21
100
AcDbEntity
  8
0
370
    -3
100
AcDbLine
 10
64.60955022000053
 20
6.065183085640456
 30
0.0
 11
64.60955022000053
 21
3.184871519055832
 31
0.0
  0
LINE
  5
184
330
21
100
AcDbEntity
  8
0
370
    -3
100
AcDbLine
 10
64.60955022000053
 20
3.184871519055832
 30
0.0
 11
68.60955022000053
 21
3.184871519055832
 31
0.0
  0
LINE
  5
185
330
21
100
AcDbEntity
  8
0
370
    -3
100
AcDbLine
 10
68.60955022000053
 20
3.184871519055832
 30
0.0
 11
68.60955022000053
 21
6.065183085640456
 31
0.0
  0
LINE
  5
186
330
21
100
AcDbEntity
  8
0
370
    -3
100
AcDbLine
 10
68.60955022000053
 20
6.065183085640456
 30
0.0
 11
67.60955022000053
 21
6.065183085640456
 31
0.0
  0
ARC
  5
187
330
21
100
AcDbEntity
  8
0
370
    -3
100
AcDbCircle
 10
66.60955022000053
 20
6.065183085640456
 30
0.0
 40
1.0
100
AcDbArc
 50
0.0
 51
180.0
  0
LINE
  5
188
330
21
100
AcDbEntity
  8
0
370
    -3
100
AcDbLine
 10
67.66937927983054
 20
6.065183085640456
 30
0.0
 11
68.60955022000053
 21
3.184871519055832
 31
0.0
  0
LINE
  5
189
330
21
100
AcDbEntity
  8
0
370
    -3
100
AcDbLine
 10
64.60955022000053
 20
3.184871519055832
 30
0.0
 11
65.54972116017234
 21
6.065183085640456
 31
0.0
  0
LINE
  5
18A
330
21
100
AcDbEntity
  8
0
370
    -3
100
AcDbLine
 10
65.62649180893823
 20
6.248475639877597
 30
0.0
 11
67.59260863106465
 21
6.248475639877597
 31
0.0
  0
LINE
  5
18B
330
21
100
AcDbEntity
  8
0
370
    -3
100
AcDbLine
 10
20.23651614000119
 20
23.75282478406734
 30
0.0
 11
15.23651614000119
 21
23.75282478406734
 31
0.0
  0
LINE
  5
18C
330
21
100
AcDbEntity
  8
0
370
    -3
100
AcDbLine
 10
20.23651614000119
 20
19.75282478406734
 30
0.0
 11
15.23651614000119
 21
19.75282478406734
 31
0.0
  0
LINE
  5
18D
330
21
100
AcDbEntity
  8
0
370
    -3
100
AcDbLine
 10
20.23651614000119
 20
19.75282478406734
 30
0.0
 11
20.23651614000119
 21
23.75282478406734
 31
0.0
  0
LINE
  5
18E
330
21
100
AcDbEntity
  8
0
370
    -3
100
AcDbLine
 10
15.23651614000119
 20
23.75282478406734
 30
0.0
 11
15.23651614000119
 21
19.75282478406734
 31
0.0
  0
LINE
  5
18F
330
21
100
AcDbEntity
  8
0
370
    -3
100
AcDbLine
 10
15.23651614000119
 20
19.75282478406734
 30
0.0
 11
15.23651614000119
 21
16.25282478406734
 31
0.0
  0
LINE
  5
190
330
21
100
AcDbEntity
  8
0
370
    -3
100
AcDbLine
 10
15.23651614000119
 20
16.25282478406734
 30
0.0
 11
15.23651614000119
 21
8.252824784067798
 31
0.0
  0
LINE
  5
191
330
21
100
AcDbEntity
  8
0
370
    -3
100
AcDbLine
 10
15.23651614000119
 20
8.252824784067798
 30
0.0
 11
15.23651614000119
 21
2.752824784067798
 31
0.0
  0
LINE
  5
192
330
21
100
AcDbEntity
  8
0
370
    -3
100
AcDbLine
 10
20.23651614000119
 20
2.752824784067343
 30
0.0
 11
20.23651614000119
 21
8.252824784067343
 31
0.0
  0
LINE
  5
193
330
21
100
AcDbEntity
  8
0
370
    -3
100
AcDbLine
 10
20.23651614000119
 20
8.252824784067343
 30
0.0
 11
20.23651614000119
 21
16.25282478406734
 31
0.0
  0
LINE
  5
194
330
21
100
AcDbEntity
  8
0
370
    -3
100
AcDbLine
 10
20.23651614000119
 20
16.25282478406734
 30
0.0
 11
20.23651614000119
 21
19.75282478406734
 31
0.0
  0
LINE
  5
195
330
21
100
AcDbEntity
  8
0
370
    -3
100
AcDbLine
 10
20.23651614000119
 20
16.25282478406734
 30
0.0
 11
15.23651614000119
 21
16.25282478406734
 31
0.0
  0
LINE
  5
196
330
21
100
AcDbEntity
  8
0
370
    -3
100
AcDbLine
 10
20.23651614000119
 20
8.252824784067343
 30
0.0
 11
15.23651614000119
 21
8.252824784067798
 31
0.0
  0
LINE
  5
197
330
21
100
AcDbEntity
  8
0
370
    -3
100
AcDbLine
 10
15.98651614000119
 20
15.53682464444773
 30
0.0
 11
19.48651614000119
 21
15.53682464444773
 31
0.0
  0
LINE
  5
198
330
21
100
AcDbEntity
  8
0
370
    -3
100
AcDbLine
 10
15.98651614000119
 20
13.74682429539735
 30
0.0
 11
15.98651614000119
 21
15.53682464444773
 31
0.0
  0
LINE
  5
199
330
21
100
AcDbEntity
  8
0
370
    -3
100
AcDbLine
 10
19.48651614000119
 20
13.74682429539735
 30
0.0
 11
15.98651614000119
 21
13.74682429539735
 31
0.0
  0
LINE
  5
19A
330
21
100
AcDbEntity
  8
0
370
    -3
100
AcDbLine
 10
19.48651614000119
 20
15.53682464444773
 30
0.0
 11
19.48651614000119
 21
13.74682429539735
 31
0.0
  0
LINE
  5
19B
330
21
100
AcDbEntity
  8
0
370
    -3
100
AcDbLine
 10
16.73651614000119
 20
11.83287463788747
 30
0.0
 11
15.73651614000119
 21
11.83287463788747
 31
0.0
  0
LINE
  5
19C
330
21
100
AcDbEntity
  8
0
370
    -3
100
AcDbLine
 10
15.73651614000119
 20
11.83287463788747
 30
0.0
 11
15.73651614000119
 21
8.682437156767719
 31
0.0
  0
LINE
  5
19D
330
21
100
AcDbEntity
  8
0
370
    -3
100
AcDbLine
 10
15.73651614000119
 20
8.682437156767719
 30
0.0
 11
19.73651614000119
 21
8.682437156767719
 31
0.0
  0
LINE
  5
19E
330
21
100
AcDbEntity
  8
0
370
    -3
100
AcDbLine
 10
19.73651614000119
 20
8.682437156767719
 30
0.0
 11
19.73651614000119
 21
11.83287463788747
 31
0.0
  0
LINE
  5
19F
330
21
100
AcDbEntity
  8
0
370
    -3
100
AcDbLine
 10
19.73651614000119
 20
11.83287463788747
 30
0.0
 11
18.73651614000119
 21
11.83287463788747
 31
0.0
  0
ARC
  5
1A0
330
21
100
AcDbEntity
  8
0
370
    -3
100
AcDbCircle
 10
17.73651614000119
 20
11.83287463788747
 30
0.0
 40
1.0
100
AcDbArc
 50
0.0
 51
180.0
  0
LINE
  5
1A1
330
21
100
AcDbEntity
  8
0
370
    -3
100
AcDbLine
 10
16.73649897698124
 20
11.74441017677736
 30
0.0
 11
15.73651614000119
 21
8.682437156767719
 31
0.0
  0
LINE
  5
1A2
330
21
100
AcDbEntity
  8
0
370
    -3
100
AcDbLine
 10
16.73651614000119
 20
11.74445781479744
 30
0.0
 11
16.73651614000119
 21
11.83287463788747
 31
0.0
  0
LINE
  5
1A3
330
21
100
AcDbEntity
  8
0
370
    -3
100
AcDbLine
 10
16.73651614000119
 20
11.74445781479744
 30
0.0
 11
16.73649897698124
 21
11.74441017677736
 31
0.0
  0
LINE
  5
1A4
330
21
100
AcDbEntity
  8
0
370
    -3
100
AcDbLine
 10
18.73653330301204
 20
11.74441017677736
 30
0.0
 11
18.73651614000119
 21
11.74445781479744
 31
0.0
  0
LINE
  5
1A5
330
21
100
AcDbEntity
  8
0
370
    -3
100
AcDbLine
 10
18.73651614000119
 20
11.83287463788747
 30
0.0
 11
18.73651614000119
 21
11.74445781479744
 31
0.0
  0
LINE
  5
1A6
330
21
100
AcDbEntity
  8
0
370
    -3
100
AcDbLine
 10
19.73651614000119
 20
8.682437156767719
 30
0.0
 11
18.73653330301204
 21
11.74441017677736
 31
0.0
  0
LINE
  5
1A7
330
21
100
AcDbEntity
  8
0
370
    -3
100
AcDbLine
 10
16.73649897698124
 20
11.74441017677736
 30
0.0
 11
18.73653330301204
 21
11.74441017677736
 31
0.0
  0
LINE
  5
1A8
330
21
100
AcDbEntity
  8
0
370
    -3
100
AcDbLine
 10
16.73651614000119
 20
11.7484756398776
 30
0.0
 11
18.73651614000119
 21
11.7484756398776
 31
0.0
  0
LINE
  5
1A9
330
21
100
AcDbEntity
  8
0
370
    -3
100
AcDbLine
 10
20.23651614000119
 20
2.752824784067343
 30
0.0
 11
15.23651614000119
 21
2.752824784067798
 31
0.0
  0
LINE
  5
1AA
330
21
100
AcDbEntity
  8
0
370
    -3
100
AcDbLine
 10
16.73651614000119
 20
6.065183085640456
 30
0.0
 11
15.73651614000119
 21
6.065183085640456
 31
0.0
  0
LINE
  5
1AB
330
21
100
AcDbEntity
  8
0
370
    -3
100
AcDbLine
 10
15.73651614000119
 20
6.065183085640456
 30
0.0
 11
15.73651614000119
 21
3.184871519055832
 31
0.0
  0
LINE
  5
1AC
330
21
100
AcDbEntity
  8
0
370
    -3
100
AcDbLine
 10
15.73651614000119
 20
3.184871519055832
 30
0.0
 11
19.73651614000119
 21
3.184871519055378
 31
0.0
  0
LINE
  5
1AD
330
21
100
AcDbEntity
  8
0
370
    -3
100
AcDbLine
 10
19.73651614000119
 20
3.184871519055378
 30
0.0
 11
19.73651614000119
 21
6.065183085640456
 31
0.0
  0
LINE
  5
1AE
330
21
100
AcDbEntity
  8
0
370
    -3
100
AcDbLine
 10
19.73651614000119
 20
6.065183085640456
 30
0.0
 11
18.73651614000119
 21
6.065183085640456
 31
0.0
  0
ARC
  5
1AF
330
21
100
AcDbEntity
  8
0
370
    -3
100
AcDbCircle
 10
17.73651614000119
 20
6.065183085640456
 30
0.0
 40
1.0
100
AcDbArc
 50
0.0
 51
180.0
  0
LINE
  5
1B0
330
21
100
AcDbEntity
  8
0
370
    -3
100
AcDbLine
 10
18.79634519983119
 20
6.065183085640456
 30
0.0
 11
19.73651614000119
 21
3.184871519055378
 31
0.0
  0
LINE
  5
1B1
330
21
100
AcDbEntity
  8
0
370
    -3
100
AcDbLine
 10
15.73651614000119
 20
3.184871519055832
 30
0.0
 11
16.676687080173
 21
6.065183085640456
 31
0.0
  0
LINE
  5
1B2
330
21
100
AcDbEntity
  8
0
370
    -3
100
AcDbLine
 10
16.75345772893888
 20
6.248475639877597
 30
0.0
 11
18.71957455106349
 21
6.248475639877597
 31
0.0
  0
LINE
  5
1B3
330
21
100
AcDbEntity
  8
0
370
    -3
100
AcDbLine
 10
35.23651614000119
 20
2.752824784067343
 30
0.0
 11
35.23651614000119
 21
8.252824784067343
 31
0.0
  0
LINE
  5
1B4
330
21
100
AcDbEntity
  8
0
370
    -3
100
AcDbLine
 10
35.23651614000119
 20
8.252824784067343
 30
0.0
 11
35.23651614000119
 21
16.25282478406734
 31
0.0
  0
LINE
  5
1B5
330
21
100
AcDbEntity
  8
0
370
    -3
100
AcDbLine
 10
35.23651614000119
 20
16.25282478406734
 30
0.0
 11
35.23651614000119
 21
19.75282478406734
 31
0.0
  0
LINE
  5
1B6
330
21
100
AcDbEntity
  8
0
370
    -3
100
AcDbLine
 10
35.23651614000119
 20
19.75282478406734
 30
0.0
 11
35.23651614000119
 21
23.75282478406734
 31
0.0
  0
LINE
  5
1B7
330
21
100
AcDbEntity
  8
0
370
    -3
100
AcDbLine
 10
35.23651614000119
 20
19.75282478406734
 30
0.0
 11
30.23651614000119
 21
19.75282478406734
 31
0.0
  0
LINE
  5
1B8
330
21
100
AcDbEntity
  8
0
370
    -3
100
AcDbLine
 10
30.23651614000119
 20
19.75282478406734
 30
0.0
 11
30.23651614000119
 21
16.25282478406734
 31
0.0
  0
LINE
  5
1B9
330
21
100
AcDbEntity
  8
0
370
    -3
100
AcDbLine
 10
30.23651614000119
 20
16.25282478406734
 30
0.0
 11
30.23651614000119
 21
8.252824784067343
 31
0.0
  0
LINE
  5
1BA
330
21
100
AcDbEntity
  8
0
370
    -3
100
AcDbLine
 10
30.23651614000119
 20
8.252824784067343
 30
0.0
 11
30.23651614000119
 21
2.752824784067343
 31
0.0
  0
LINE
  5
1BB
330
21
100
AcDbEntity
  8
0
370
    -3
100
AcDbLine
 10
30.23651614000119
 20
23.75282478406734
 30
0.0
 11
30.23651614000119
 21
19.75282478406734
 31
0.0
  0
LINE
  5
1BC
330
21
100
AcDbEntity
  8
0
370
    -3
100
AcDbLine
 10
35.23651614000119
 20
23.75282478406734
 30
0.0
 11
30.23651614000119
 21
23.75282478406734
 31
0.0
  0
LINE
  5
1BD
330
21
100
AcDbEntity
  8
0
370
    -3
100
AcDbLine
 10
35.23651614000119
 20
16.25282478406734
 30
0.0
 11
30.23651614000119
 21
16.25282478406734
 31
0.0
  0
LINE
  5
1BE
330
21
100
AcDbEntity
  8
0
370
    -3
100
AcDbLine
 10
35.23651614000119
 20
8.252824784067343
 30
0.0
 11
30.23651614000119
 21
8.252824784067343
 31
0.0
  0
LINE
  5
1BF
330
21
100
AcDbEntity
  8
0
370
    -3
100
AcDbLine
 10
30.98651614000119
 20
15.53682464444773
 30
0.0
 11
34.48651614000119
 21
15.53682464444773
 31
0.0
  0
LINE
  5
1C0
330
21
100
AcDbEntity
  8
0
370
    -3
100
AcDbLine
 10
30.98651614000119
 20
13.74682429539735
 30
0.0
 11
30.98651614000119
 21
15.53682464444773
 31
0.0
  0
LINE
  5
1C1
330
21
100
AcDbEntity
  8
0
370
    -3
100
AcDbLine
 10
34.48651614000119
 20
13.74682429539735
 30
0.0
 11
30.98651614000119
 21
13.74682429539735
 31
0.0
  0
LINE
  5
1C2
330
21
100
AcDbEntity
  8
0
370
    -3
100
AcDbLine
 10
34.48651614000119
 20
15.53682464444773
 30
0.0
 11
34.48651614000119
 21
13.74682429539735
 31
0.0
  0
LINE
  5
1C3
330
21
100
AcDbEntity
  8
0
370
    -3
100
AcDbLine
 10
31.73651614000119
 20
11.83287463788747
 30
0.0
 11
30.73651614000119
 21
11.83287463788747
 31
0.0
  0
LINE
  5
1C4
330
21
100
AcDbEntity
  8
0
370
    -3
100
AcDbLine
 10
30.73651614000119
 20
11.83287463788747
 30
0.0
 11
30.73651614000119
 21
8.682437156767719
 31
0.0
  0
LINE
  5
1C5
330
21
100
AcDbEntity
  8
0
370
    -3
100
AcDbLine
 10
30.73651614000119
 20
8.682437156767719
 30
0.0
 11
34.73651614000119
 21
8.682437156767719
 31
0.0
  0
LINE
  5
1C6
330
21
100
AcDbEntity
  8
0
370
    -3
100
AcDbLine
 10
34.73651614000119
 20
8.682437156767719
 30
0.0
 11
34.73651614000119
 21
11.83287463788747
 31
0.0
  0
LINE
  5
1C7
330
21
100
AcDbEntity
  8
0
370
    -3
100
AcDbLine
 10
34.73651614000119
 20
11.83287463788747
 30
0.0
 11
33.73651614000119
 21
11.83287463788747
 31
0.0
  0
ARC
  5
1C8
330
21
100
AcDbEntity
  8
0
370
    -3
100
AcDbCircle
 10
32.73651614000119
 20
11.83287463788747
 30
0.0
 40
1.0
100
AcDbArc
 50
0.0
 51
180.0
  0
LINE
  5
1C9
330
21
100
AcDbEntity
  8
0
370
    -3
100
AcDbLine
 10
33.73653330301204
 20
11.74441017677736
 30
0.0
 11
33.73651614000119
 21
11.74445781479744
 31
0.0
  0
LINE
  5
1CA
330
21
100
AcDbEntity
  8
0
370
    -3
100
AcDbLine
 10
33.73651614000119
 20
11.83287463788747
 30
0.0
 11
33.73651614000119
 21
11.74445781479744
 31
0.0
  0
LINE
  5
1CB
330
21
100
AcDbEntity
  8
0
370
    -3
100
AcDbLine
 10
34.73651614000119
 20
8.682437156767719
 30
0.0
 11
33.73653330301204
 21
11.74441017677736
 31
0.0
  0
LINE
  5
1CC
330
21
100
AcDbEntity
  8
0
370
    -3
100
AcDbLine
 10
31.73649897698124
 20
11.74441017677736
 30
0.0
 11
30.73651614000119
 21
8.682437156767719
 31
0.0
  0
LINE
  5
1CD
330
21
100
AcDbEntity
  8
0
370
    -3
100
AcDbLine
 10
31.73651614000119
 20
11.74445781479744
 30
0.0
 11
31.73651614000119
 21
11.83287463788747
 31
0.0
  0
LINE
  5
1CE
330
21
100
AcDbEntity
  8
0
370
    -3
100
AcDbLine
 10
31.73651614000119
 20
11.74445781479744
 30
0.0
 11
31.73649897698124
 21
11.74441017677736
 31
0.0
  0
LINE
  5
1CF
330
21
100
AcDbEntity
  8
0
370
    -3
100
AcDbLine
 10
31.73649897698124
 20
11.74441017677736
 30
0.0
 11
33.73653330301204
 21
11.74441017677736
 31
0.0
  0
LINE
  5
1D0
330
21
100
AcDbEntity
  8
0
370
    -3
100
AcDbLine
 10
31.73651614000119
 20
11.7484756398776
 30
0.0
 11
33.73651614000119
 21
11.7484756398776
 31
0.0
  0
LINE
  5
1D1
330
21
100
AcDbEntity
  8
0
370
    -3
100
AcDbLine
 10
35.23651614000119
 20
2.752824784067343
 30
0.0
 11
30.23651614000119
 21
2.752824784067343
 31
0.0
  0
LINE
  5
1D2
330
21
100
AcDbEntity
  8
0
370
    -3
100
AcDbLine
 10
31.73651614000119
 20
6.065183085640456
 30
0.0
 11
30.73651614000119
 21
6.065183085640456
 31
0.0
  0
LINE
  5
1D3
330
21
100
AcDbEntity
  8
0
370
    -3
100
AcDbLine
 10
30.73651614000119
 20
6.065183085640456
 30
0.0
 11
30.73651614000119
 21
3.184871519055378
 31
0.0
  0
LINE
  5
1D4
330
21
100
AcDbEntity
  8
0
370
    -3
100
AcDbLine
 10
30.73651614000119
 20
3.184871519055378
 30
0.0
 11
34.73651614000119
 21
3.184871519055378
 31
0.0
  0
LINE
  5
1D5
330
21
100
AcDbEntity
  8
0
370
    -3
100
AcDbLine
 10
34.73651614000119
 20
3.184871519055378
 30
0.0
 11
34.73651614000119
 21
6.065183085640456
 31
0.0
  0
LINE
  5
1D6
330
21
100
AcDbEntity
  8
0
370
    -3
100
AcDbLine
 10
34.73651614000119
 20
6.065183085640456
 30
0.0
 11
33.73651614000119
 21
6.065183085640456
 31
0.0
  0
ARC
  5
1D7
330
21
100
AcDbEntity
  8
0
370
    -3
100
AcDbCircle
 10
32.73651614000119
 20
6.065183085640456
 30
0.0
 40
1.0
100
AcDbArc
 50
0.0
 51
180.0
  0
LINE
  5
1D8
330
21
100
AcDbEntity
  8
0
370
    -3
100
AcDbLine
 10
33.79634519982937
 20
6.065183085640456
 30
0.0
 11
34.73651614000119
 21
3.184871519055378
 31
0.0
  0
LINE
  5
1D9
330
21
100
AcDbEntity
  8
0
370
    -3
100
AcDbLine
 10
30.73651614000119
 20
3.184871519055378
 30
0.0
 11
31.676687080173
 21
6.065183085640456
 31
0.0
  0
LINE
  5
1DA
330
21
100
AcDbEntity
  8
0
370
    -3
100
AcDbLine
 10
31.75345772893888
 20
6.248475639877597
 30
0.0
 11
33.71957455106349
 21
6.248475639877597
 31
0.0
  0
LINE
  5
1DB
330
21
100
AcDbEntity
  8
0
370
    -3
100
AcDbLine
 10
15.23651614000119
 20
2.752824784067798
 30
0.0
 11
15.23651614000119
 21
8.252824784067798
 31
0.0
  0
LINE
  5
1DC
330
21
100
AcDbEntity
  8
0
370
    -3
100
AcDbLine
 10
15.23651614000119
 20
8.252824784067798
 30
0.0
 11
15.23651614000119
 21
16.2528247840678
 31
0.0
  0
LINE
  5
1DD
330
21
100
AcDbEntity
  8
0
370
    -3
100
AcDbLine
 10
15.23651614000119
 20
16.2528247840678
 30
0.0
 11
15.23651614000119
 21
19.7528247840678
 31
0.0
  0
LINE
  5
1DE
330
21
100
AcDbEntity
  8
0
370
    -3
100
AcDbLine
 10
15.23651614000119
 20
19.7528247840678
 30
0.0
 11
15.23651614000119
 21
23.7528247840678
 31
0.0
  0
LINE
  5
1DF
330
21
100
AcDbEntity
  8
0
370
    -3
100
AcDbLine
 10
15.23651614000119
 20
19.7528247840678
 30
0.0
 11
10.23651614000119
 21
19.7528247840678
 31
0.0
  0
LINE
  5
1E0
330
21
100
AcDbEntity
  8
0
370
    -3
100
AcDbLine
 10
15.23651614000119
 20
23.7528247840678
 30
0.0
 11
10.23651614000119
 21
23.7528247840678
 31
0.0
  0
LINE
  5
1E1
330
21
100
AcDbEntity
  8
0
370
    -3
100
AcDbLine
 10
10.23651614000119
 20
19.7528247840678
 30
0.0
 11
10.23651614000119
 21
16.2528247840678
 31
0.0
  0
LINE
  5
1E2
330
21
100
AcDbEntity
  8
0
370
    -3
100
AcDbLine
 10
10.23651614000119
 20
16.2528247840678
 30
0.0
 11
10.23651614000119
 21
8.252824784067798
 31
0.0
  0
LINE
  5
1E3
330
21
100
AcDbEntity
  8
0
370
    -3
100
AcDbLine
 10
10.23651614000119
 20
8.252824784067798
 30
0.0
 11
10.23651614000119
 21
2.752824784067798
 31
0.0
  0
LINE
  5
1E4
330
21
100
AcDbEntity
  8
0
370
    -3
100
AcDbLine
 10
10.23651614000119
 20
23.7528247840678
 30
0.0
 11
10.23651614000119
 21
19.7528247840678
 31
0.0
  0
LINE
  5
1E5
330
21
100
AcDbEntity
  8
0
370
    -3
100
AcDbLine
 10
15.23651614000119
 20
16.2528247840678
 30
0.0
 11
10.23651614000119
 21
16.2528247840678
 31
0.0
  0
LINE
  5
1E6
330
21
100
AcDbEntity
  8
0
370
    -3
100
AcDbLine
 10
15.23651614000119
 20
8.252824784067798
 30
0.0
 11
10.23651614000119
 21
8.252824784067798
 31
0.0
  0
LINE
  5
1E7
330
21
100
AcDbEntity
  8
0
370
    -3
100
AcDbLine
 10
10.98651614000119
 20
15.53682464444773
 30
0.0
 11
14.48651614000119
 21
15.53682464444773
 31
0.0
  0
LINE
  5
1E8
330
21
100
AcDbEntity
  8
0
370
    -3
100
AcDbLine
 10
10.98651614000119
 20
13.7468242953978
 30
0.0
 11
10.98651614000119
 21
15.53682464444773
 31
0.0
  0
LINE
  5
1E9
330
21
100
AcDbEntity
  8
0
370
    -3
100
AcDbLine
 10
14.48651614000119
 20
13.7468242953978
 30
0.0
 11
10.98651614000119
 21
13.7468242953978
 31
0.0
  0
LINE
  5
1EA
330
21
100
AcDbEntity
  8
0
370
    -3
100
AcDbLine
 10
14.48651614000119
 20
15.53682464444773
 30
0.0
 11
14.48651614000119
 21
13.7468242953978
 31
0.0
  0
LINE
  5
1EB
330
21
100
AcDbEntity
  8
0
370
    -3
100
AcDbLine
 10
11.73651614000119
 20
11.83287463788747
 30
0.0
 11
10.73651614000119
 21
11.83287463788747
 31
0.0
  0
LINE
  5
1EC
330
21
100
AcDbEntity
  8
0
370
    -3
100
AcDbLine
 10
10.73651614000119
 20
11.83287463788747
 30
0.0
 11
10.73651614000119
 21
8.682437156767719
 31
0.0
  0
LINE
  5
1ED
330
21
100
AcDbEntity
  8
0
370
    -3
100
AcDbLine
 10
10.73651614000119
 20
8.682437156767719
 30
0.0
 11
14.73651614000119
 21
8.682437156767719
 31
0.0
  0
LINE
  5
1EE
330
21
100
AcDbEntity
  8
0
370
    -3
100
AcDbLine
 10
14.73651614000119
 20
8.682437156767719
 30
0.0
 11
14.73651614000119
 21
11.83287463788747
 31
0.0
  0
LINE
  5
1EF
330
21
100
AcDbEntity
  8
0
370
    -3
100
AcDbLine
 10
14.73651614000119
 20
11.83287463788747
 30
0.0
 11
13.73651614000119
 21
11.83287463788747
 31
0.0
  0
ARC
  5
1F0
330
21
100
AcDbEntity
  8
0
370
    -3
100
AcDbCircle
 10
12.73651614000119
 20
11.83287463788747
 30
0.0
 40
1.0
100
AcDbArc
 50
0.0
 51
180.0
  0
LINE
  5
1F1
330
21
100
AcDbEntity
  8
0
370
    -3
100
AcDbLine
 10
11.73649897698124
 20
11.74441017677782
 30
0.0
 11
10.73651614000119
 21
8.682437156767719
 31
0.0
  0
LINE
  5
1F2
330
21
100
AcDbEntity
  8
0
370
    -3
100
AcDbLine
 10
11.73651614000119
 20
11.74445781479744
 30
0.0
 11
11.73651614000119
 21
11.83287463788747
 31
0.0
  0
LINE
  5
1F3
330
21
100
AcDbEntity
  8
0
370
    -3
100
AcDbLine
 10
11.73651614000119
 20
11.74445781479744
 30
0.0
 11
11.73649897698124
 21
11.74441017677782
 31
0.0
  0
LINE
  5
1F4
330
21
100
AcDbEntity
  8
0
370
    -3
100
AcDbLine
 10
13.73653330301204
 20
11.74441017677782
 30
0.0
 11
13.73651614000119
 21
11.74445781479744
 31
0.0
  0
LINE
  5
1F5
330
21
100
AcDbEntity
  8
0
370
    -3
100
AcDbLine
 10
13.73651614000119
 20
11.83287463788747
 30
0.0
 11
13.73651614000119
 21
11.74445781479744
 31
0.0
  0
LINE
  5
1F6
330
21
100
AcDbEntity
  8
0
370
    -3
100
AcDbLine
 10
14.73651614000119
 20
8.682437156767719
 30
0.0
 11
13.73653330301204
 21
11.74441017677782
 31
0.0
  0
LINE
  5
1F7
330
21
100
AcDbEntity
  8
0
370
    -3
100
AcDbLine
 10
11.73649897698124
 20
11.74441017677782
 30
0.0
 11
13.73653330301204
 21
11.74441017677782
 31
0.0
  0
LINE
  5
1F8
330
21
100
AcDbEntity
  8
0
370
    -3
100
AcDbLine
 10
11.73651614000119
 20
11.7484756398776
 30
0.0
 11
13.73651614000119
 21
11.7484756398776
 31
0.0
  0
LINE
  5
1F9
330
21
100
AcDbEntity
  8
0
370
    -3
100
AcDbLine
 10
15.23651614000119
 20
2.752824784067798
 30
0.0
 11
10.23651614000119
 21
2.752824784067798
 31
0.0
  0
LINE
  5
1FA
330
21
100
AcDbEntity
  8
0
370
    -3
100
AcDbLine
 10
11.73651614000119
 20
6.065183085640456
 30
0.0
 11
10.73651614000119
 21
6.065183085640456
 31
0.0
  0
LINE
  5
1FB
330
21
100
AcDbEntity
  8
0
370
    -3
100
AcDbLine
 10
10.73651614000119
 20
6.065183085640456
 30
0.0
 11
10.73651614000119
 21
3.184871519055832
 31
0.0
  0
LINE
  5
1FC
330
21
100
AcDbEntity
  8
0
370
    -3
100
AcDbLine
 10
10.73651614000119
 20
3.184871519055832
 30
0.0
 11
14.73651614000119
 21
3.184871519055832
 31
0.0
  0
LINE
  5
1FD
330
21
100
AcDbEntity
  8
0
370
    -3
100
AcDbLine
 10
14.73651614000119
 20
3.184871519055832
 30
0.0
 11
14.73651614000119
 21
6.065183085640456
 31
0.0
  0
LINE
  5
1FE
330
21
100
AcDbEntity
  8
0
370
    -3
100
AcDbLine
 10
14.73651614000119
 20
6.065183085640456
 30
0.0
 11
13.73651614000119
 21
6.065183085640456
 31
0.0
  0
ARC
  5
1FF
330
21
100
AcDbEntity
  8
0
370
    -3
100
AcDbCircle
 10
12.73651614000119
 20
6.065183085640456
 30
0.0
 40
1.0
100
AcDbArc
 50
0.0
 51
180.0
  0
LINE
  5
200
330
21
100
AcDbEntity
  8
0
370
    -3
100
AcDbLine
 10
10.73651614000119
 20
3.184871519055832
 30
0.0
 11
11.676687080173
 21
6.065183085640456
 31
0.0
  0
LINE
  5
201
330
21
100
AcDbEntity
  8
0
370
    -3
100
AcDbLine
 10
13.79634519983119
 20
6.065183085640456
 30
0.0
 11
14.73651614000119
 21
3.184871519055832
 31
0.0
  0
LINE
  5
202
330
21
100
AcDbEntity
  8
0
370
    -3
100
AcDbLine
 10
11.75345772893888
 20
6.248475639877597
 30
0.0
 11
13.71957455106349
 21
6.248475639877597
 31
0.0
  0
LINE
  5
203
330
21
100
AcDbEntity
  8
0
370
    -3
100
AcDbLine
 10
25.23651614000119
 20
19.75282478406734
 30
0.0
 11
25.23651614000119
 21
16.25282478406734
 31
0.0
  0
LINE
  5
204
330
21
100
AcDbEntity
  8
0
370
    -3
100
AcDbLine
 10
25.23651614000119
 20
16.25282478406734
 30
0.0
 11
25.23651614000119
 21
8.252824784067343
 31
0.0
  0
LINE
  5
205
330
21
100
AcDbEntity
  8
0
370
    -3
100
AcDbLine
 10
25.23651614000119
 20
8.252824784067343
 30
0.0
 11
25.23651614000119
 21
2.752824784067343
 31
0.0
  0
LINE
  5
206
330
21
100
AcDbEntity
  8
0
370
    -3
100
AcDbLine
 10
25.23651614000119
 20
23.75282478406734
 30
0.0
 11
25.23651614000119
 21
19.75282478406734
 31
0.0
  0
LINE
  5
207
330
21
100
AcDbEntity
  8
0
370
    -3
100
AcDbLine
 10
30.23651614000119
 20
19.75282478406734
 30
0.0
 11
25.23651614000119
 21
19.75282478406734
 31
0.0
  0
LINE
  5
208
330
21
100
AcDbEntity
  8
0
370
    -3
100
AcDbLine
 10
30.23651614000119
 20
23.75282478406734
 30
0.0
 11
25.23651614000119
 21
23.75282478406734
 31
0.0
  0
LINE
  5
209
330
21
100
AcDbEntity
  8
0
370
    -3
100
AcDbLine
 10
30.23651614000119
 20
19.75282478406734
 30
0.0
 11
30.23651614000119
 21
23.75282478406734
 31
0.0
  0
LINE
  5
20A
330
21
100
AcDbEntity
  8
0
370
    -3
100
AcDbLine
 10
30.23651614000119
 20
2.752824784067343
 30
0.0
 11
30.23651614000119
 21
8.252824784067343
 31
0.0
  0
LINE
  5
20B
330
21
100
AcDbEntity
  8
0
370
    -3
100
AcDbLine
 10
30.23651614000119
 20
8.252824784067343
 30
0.0
 11
30.23651614000119
 21
16.25282478406734
 31
0.0
  0
LINE
  5
20C
330
21
100
AcDbEntity
  8
0
370
    -3
100
AcDbLine
 10
30.23651614000119
 20
16.25282478406734
 30
0.0
 11
30.23651614000119
 21
19.75282478406734
 31
0.0
  0
LINE
  5
20D
330
21
100
AcDbEntity
  8
0
370
    -3
100
AcDbLine
 10
30.23651614000119
 20
16.25282478406734
 30
0.0
 11
25.23651614000119
 21
16.25282478406734
 31
0.0
  0
LINE
  5
20E
330
21
100
AcDbEntity
  8
0
370
    -3
100
AcDbLine
 10
30.23651614000119
 20
8.252824784067343
 30
0.0
 11
25.23651614000119
 21
8.252824784067343
 31
0.0
  0
LINE
  5
20F
330
21
100
AcDbEntity
  8
0
370
    -3
100
AcDbLine
 10
25.98651614000119
 20
15.53682464444773
 30
0.0
 11
29.48651614000119
 21
15.53682464444773
 31
0.0
  0
LINE
  5
210
330
21
100
AcDbEntity
  8
0
370
    -3
100
AcDbLine
 10
25.98651614000119
 20
13.74682429539735
 30
0.0
 11
25.98651614000119
 21
15.53682464444773
 31
0.0
  0
LINE
  5
211
330
21
100
AcDbEntity
  8
0
370
    -3
100
AcDbLine
 10
29.48651614000119
 20
13.74682429539735
 30
0.0
 11
25.98651614000119
 21
13.74682429539735
 31
0.0
  0
LINE
  5
212
330
21
100
AcDbEntity
  8
0
370
    -3
100
AcDbLine
 10
29.48651614000119
 20
15.53682464444773
 30
0.0
 11
29.48651614000119
 21
13.74682429539735
 31
0.0
  0
LINE
  5
213
330
21
100
AcDbEntity
  8
0
370
    -3
100
AcDbLine
 10
26.73651614000119
 20
11.83287463788747
 30
0.0
 11
25.73651614000119
 21
11.83287463788747
 31
0.0
  0
LINE
  5
214
330
21
100
AcDbEntity
  8
0
370
    -3
100
AcDbLine
 10
25.73651614000119
 20
11.83287463788747
 30
0.0
 11
25.73651614000119
 21
8.682437156767719
 31
0.0
  0
LINE
  5
215
330
21
100
AcDbEntity
  8
0
370
    -3
100
AcDbLine
 10
25.73651614000119
 20
8.682437156767719
 30
0.0
 11
29.73651614000119
 21
8.682437156767719
 31
0.0
  0
LINE
  5
216
330
21
100
AcDbEntity
  8
0
370
    -3
100
AcDbLine
 10
29.73651614000119
 20
8.682437156767719
 30
0.0
 11
29.73651614000119
 21
11.83287463788747
 31
0.0
  0
LINE
  5
217
330
21
100
AcDbEntity
  8
0
370
    -3
100
AcDbLine
 10
29.73651614000119
 20
11.83287463788747
 30
0.0
 11
28.73651614000119
 21
11.83287463788747
 31
0.0
  0
ARC
  5
218
330
21
100
AcDbEntity
  8
0
370
    -3
100
AcDbCircle
 10
27.73651614000119
 20
11.83287463788747
 30
0.0
 40
1.0
100
AcDbArc
 50
0.0
 51
180.0
  0
LINE
  5
219
330
21
100
AcDbEntity
  8
0
370
    -3
100
AcDbLine
 10
28.73653330301204
 20
11.74441017677736
 30
0.0
 11
28.73651614000119
 21
11.74445781479744
 31
0.0
  0
LINE
  5
21A
330
21
100
AcDbEntity
  8
0
370
    -3
100
AcDbLine
 10
28.73651614000119
 20
11.83287463788747
 30
0.0
 11
28.73651614000119
 21
11.74445781479744
 31
0.0
  0
LINE
  5
21B
330
21
100
AcDbEntity
  8
0
370
    -3
100
AcDbLine
 10
29.73651614000119
 20
8.682437156767719
 30
0.0
 11
28.73653330301204
 21
11.74441017677736
 31
0.0
  0
LINE
  5
21C
330
21
100
AcDbEntity
  8
0
370
    -3
100
AcDbLine
 10
26.73649897698124
 20
11.74441017677736
 30
0.0
 11
25.73651614000119
 21
8.682437156767719
 31
0.0
  0
LINE
  5
21D
330
21
100
AcDbEntity
  8
0
370
    -3
100
AcDbLine
 10
26.73651614000119
 20
11.74445781479744
 30
0.0
 11
26.73651614000119
 21
11.83287463788747
 31
0.0
  0
LINE
  5
21E
330
21
100
AcDbEntity
  8
0
370
    -3
100
AcDbLine
 10
26.73651614000119
 20
11.74445781479744
 30
0.0
 11
26.73649897698124
 21
11.74441017677736
 31
0.0
  0
LINE
  5
21F
330
21
100
AcDbEntity
  8
0
370
    -3
100
AcDbLine
 10
26.73649897698124
 20
11.74441017677736
 30
0.0
 11
28.73653330301204
 21
11.74441017677736
 31
0.0
  0
LINE
  5
220
330
21
100
AcDbEntity
  8
0
370
    -3
100
AcDbLine
 10
26.73651614000119
 20
11.7484756398776
 30
0.0
 11
28.73651614000119
 21
11.7484756398776
 31
0.0
  0
LINE
  5
221
330
21
100
AcDbEntity
  8
0
370
    -3
100
AcDbLine
 10
30.23651614000119
 20
2.752824784067343
 30
0.0
 11
25.23651614000119
 21
2.752824784067343
 31
0.0
  0
LINE
  5
222
330
21
100
AcDbEntity
  8
0
370
    -3
100
AcDbLine
 10
26.73651614000119
 20
6.065183085640456
 30
0.0
 11
25.73651614000119
 21
6.065183085640456
 31
0.0
  0
LINE
  5
223
330
21
100
AcDbEntity
  8
0
370
    -3
100
AcDbLine
 10
25.73651614000119
 20
6.065183085640456
 30
0.0
 11
25.73651614000119
 21
3.184871519055378
 31
0.0
  0
LINE
  5
224
330
21
100
AcDbEntity
  8
0
370
    -3
100
AcDbLine
 10
25.73651614000119
 20
3.184871519055378
 30
0.0
 11
29.73651614000119
 21
3.184871519055378
 31
0.0
  0
LINE
  5
225
330
21
100
AcDbEntity
  8
0
370
    -3
100
AcDbLine
 10
29.73651614000119
 20
3.184871519055378
 30
0.0
 11
29.73651614000119
 21
6.065183085640456
 31
0.0
  0
LINE
  5
226
330
21
100
AcDbEntity
  8
0
370
    -3
100
AcDbLine
 10
29.73651614000119
 20
6.065183085640456
 30
0.0
 11
28.73651614000119
 21
6.065183085640456
 31
0.0
  0
ARC
  5
227
330
21
100
AcDbEntity
  8
0
370
    -3
100
AcDbCircle
 10
27.73651614000119
 20
6.065183085640456
 30
0.0
 40
1.0
100
AcDbArc
 50
0.0
 51
180.0
  0
LINE
  5
228
330
21
100
AcDbEntity
  8
0
370
    -3
100
AcDbLine
 10
28.79634519982937
 20
6.065183085640456
 30
0.0
 11
29.73651614000119
 21
3.184871519055378
 31
0.0
  0
LINE
  5
229
330
21
100
AcDbEntity
  8
0
370
    -3
100
AcDbLine
 10
25.73651614000119
 20
3.184871519055378
 30
0.0
 11
26.676687080173
 21
6.065183085640456
 31
0.0
  0
LINE
  5
22A
330
21
100
AcDbEntity
  8
0
370
    -3
100
AcDbLine
 10
26.75345772893888
 20
6.248475639877597
 30
0.0
 11
28.71957455106349
 21
6.248475639877597
 31
0.0
  0
LINE
  5
22B
330
21
100
AcDbEntity
  8
0
370
    -3
100
AcDbLine
 10
10.23651614000119
 20
19.7528247840678
 30
0.0
 11
5.236516140001186
 21
19.7528247840678
 31
0.0
  0
LINE
  5
22C
330
21
100
AcDbEntity
  8
0
370
    -3
100
AcDbLine
 10
10.23651614000119
 20
23.7528247840678
 30
0.0
 11
5.236516140001186
 21
23.7528247840678
 31
0.0
  0
LINE
  5
22D
330
21
100
AcDbEntity
  8
0
370
    -3
100
AcDbLine
 10
10.23651614000119
 20
2.752824784067798
 30
0.0
 11
10.23651614000119
 21
8.252824784067798
 31
0.0
  0
LINE
  5
22E
330
21
100
AcDbEntity
  8
0
370
    -3
100
AcDbLine
 10
10.23651614000119
 20
8.252824784067798
 30
0.0
 11
10.23651614000119
 21
16.2528247840678
 31
0.0
  0
LINE
  5
22F
330
21
100
AcDbEntity
  8
0
370
    -3
100
AcDbLine
 10
10.23651614000119
 20
16.2528247840678
 30
0.0
 11
10.23651614000119
 21
19.7528247840678
 31
0.0
  0
LINE
  5
230
330
21
100
AcDbEntity
  8
0
370
    -3
100
AcDbLine
 10
10.23651614000119
 20
19.7528247840678
 30
0.0
 11
10.23651614000119
 21
23.7528247840678
 31
0.0
  0
LINE
  5
231
330
21
100
AcDbEntity
  8
0
370
    -3
100
AcDbLine
 10
5.236516140001186
 20
19.7528247840678
 30
0.0
 11
5.236516140001186
 21
16.2528247840678
 31
0.0
  0
LINE
  5
232
330
21
100
AcDbEntity
  8
0
370
    -3
100
AcDbLine
 10
5.236516140001186
 20
16.2528247840678
 30
0.0
 11
5.236516140001186
 21
8.252824784067798
 31
0.0
  0
LINE
  5
233
330
21
100
AcDbEntity
  8
0
370
    -3
100
AcDbLine
 10
5.236516140001186
 20
8.252824784067798
 30
0.0
 11
5.236516140001186
 21
2.752824784067798
 31
0.0
  0
LINE
  5
234
330
21
100
AcDbEntity
  8
0
370
    -3
100
AcDbLine
 10
5.236516140001186
 20
23.7528247840678
 30
0.0
 11
5.236516140001186
 21
19.7528247840678
 31
0.0
  0
LINE
  5
235
330
21
100
AcDbEntity
  8
0
370
    -3
100
AcDbLine
 10
10.23651614000119
 20
16.2528247840678
 30
0.0
 11
5.236516140001186
 21
16.2528247840678
 31
0.0
  0
LINE
  5
236
330
21
100
AcDbEntity
  8
0
370
    -3
100
AcDbLine
 10
10.23651614000119
 20
8.252824784067798
 30
0.0
 11
5.236516140001186
 21
8.252824784067798
 31
0.0
  0
LINE
  5
237
330
21
100
AcDbEntity
  8
0
370
    -3
100
AcDbLine
 10
5.986516140001186
 20
15.53682464444773
 30
0.0
 11
9.486516140001186
 21
15.53682464444773
 31
0.0
  0
LINE
  5
238
330
21
100
AcDbEntity
  8
0
370
    -3
100
AcDbLine
 10
5.986516140001186
 20
13.7468242953978
 30
0.0
 11
5.986516140001186
 21
15.53682464444773
 31
0.0
  0
LINE
  5
239
330
21
100
AcDbEntity
  8
0
370
    -3
100
AcDbLine
 10
9.486516140001186
 20
13.7468242953978
 30
0.0
 11
5.986516140001186
 21
13.7468242953978
 31
0.0
  0
LINE
  5
23A
330
21
100
AcDbEntity
  8
0
370
    -3
100
AcDbLine
 10
9.486516140001186
 20
15.53682464444773
 30
0.0
 11
9.486516140001186
 21
13.7468242953978
 31
0.0
  0
LINE
  5
23B
330
21
100
AcDbEntity
  8
0
370
    -3
100
AcDbLine
 10
6.736516140001186
 20
11.83287463788747
 30
0.0
 11
5.736516140001186
 21
11.83287463788747
 31
0.0
  0
LINE
  5
23C
330
21
100
AcDbEntity
  8
0
370
    -3
100
AcDbLine
 10
5.736516140001186
 20
11.83287463788747
 30
0.0
 11
5.736516140001186
 21
8.682437156767719
 31
0.0
  0
LINE
  5
23D
330
21
100
AcDbEntity
  8
0
370
    -3
100
AcDbLine
 10
5.736516140001186
 20
8.682437156767719
 30
0.0
 11
9.736516140001186
 21
8.682437156767719
 31
0.0
  0
LINE
  5
23E
330
21
100
AcDbEntity
  8
0
370
    -3
100
AcDbLine
 10
9.736516140001186
 20
8.682437156767719
 30
0.0
 11
9.736516140001186
 21
11.83287463788747
 31
0.0
  0
LINE
  5
23F
330
21
100
AcDbEntity
  8
0
370
    -3
100
AcDbLine
 10
9.736516140001186
 20
11.83287463788747
 30
0.0
 11
8.736516140001186
 21
11.83287463788747
 31
0.0
  0
ARC
  5
240
330
21
100
AcDbEntity
  8
0
370
    -3
100
AcDbCircle
 10
7.736516140001186
 20
11.83287463788747
 30
0.0
 40
1.0
100
AcDbArc
 50
0.0
 51
180.0
  0
LINE
  5
241
330
21
100
AcDbEntity
  8
0
370
    -3
100
AcDbLine
 10
8.736533303012038
 20
11.74441017677782
 30
0.0
 11
8.736516140001186
 21
11.74445781479744
 31
0.0
  0
LINE
  5
242
330
21
100
AcDbEntity
  8
0
370
    -3
100
AcDbLine
 10
8.736516140001186
 20
11.83287463788747
 30
0.0
 11
8.736516140001186
 21
11.74445781479744
 31
0.0
  0
LINE
  5
243
330
21
100
AcDbEntity
  8
0
370
    -3
100
AcDbLine
 10
9.736516140001186
 20
8.682437156767719
 30
0.0
 11
8.736533303012038
 21
11.74441017677782
 31
0.0
  0
LINE
  5
244
330
21
100
AcDbEntity
  8
0
370
    -3
100
AcDbLine
 10
6.736498976981238
 20
11.74441017677782
 30
0.0
 11
5.736516140001186
 21
8.682437156767719
 31
0.0
  0
LINE
  5
245
330
21
100
AcDbEntity
  8
0
370
    -3
100
AcDbLine
 10
6.736516140001186
 20
11.74445781479744
 30
0.0
 11
6.736516140001186
 21
11.83287463788747
 31
0.0
  0
LINE
  5
246
330
21
100
AcDbEntity
  8
0
370
    -3
100
AcDbLine
 10
6.736516140001186
 20
11.74445781479744
 30
0.0
 11
6.736498976981238
 21
11.74441017677782
 31
0.0
  0
LINE
  5
247
330
21
100
AcDbEntity
  8
0
370
    -3
100
AcDbLine
 10
6.736498976981238
 20
11.74441017677782
 30
0.0
 11
8.736533303012038
 21
11.74441017677782
 31
0.0
  0
LINE
  5
248
330
21
100
AcDbEntity
  8
0
370
    -3
100
AcDbLine
 10
6.736516140001186
 20
11.7484756398776
 30
0.0
 11
8.736516140001186
 21
11.7484756398776
 31
0.0
  0
LINE
  5
249
330
21
100
AcDbEntity
  8
0
370
    -3
100
AcDbLine
 10
10.23651614000119
 20
2.752824784067798
 30
0.0
 11
5.236516140001186
 21
2.752824784067798
 31
0.0
  0
LINE
  5
24A
330
21
100
AcDbEntity
  8
0
370
    -3
100
AcDbLine
 10
6.736516140001186
 20
6.065183085640456
 30
0.0
 11
5.736516140001186
 21
6.065183085640456
 31
0.0
  0
LINE
  5
24B
330
21
100
AcDbEntity
  8
0
370
    -3
100
AcDbLine
 10
5.736516140001186
 20
6.065183085640456
 30
0.0
 11
5.736516140001186
 21
3.184871519055832
 31
0.0
  0
LINE
  5
24C
330
21
100
AcDbEntity
  8
0
370
    -3
100
AcDbLine
 10
5.736516140001186
 20
3.184871519055832
 30
0.0
 11
9.736516140001186
 21
3.184871519055832
 31
0.0
  0
LINE
  5
24D
330
21
100
AcDbEntity
  8
0
370
    -3
100
AcDbLine
 10
9.736516140001186
 20
3.184871519055832
 30
0.0
 11
9.736516140001186
 21
6.065183085640456
 31
0.0
  0
LINE
  5
24E
330
21
100
AcDbEntity
  8
0
370
    -3
100
AcDbLine
 10
9.736516140001186
 20
6.065183085640456
 30
0.0
 11
8.736516140001186
 21
6.065183085640456
 31
0.0
  0
ARC
  5
24F
330
21
100
AcDbEntity
  8
0
370
    -3
100
AcDbCircle
 10
7.736516140001186
 20
6.065183085640456
 30
0.0
 40
1.0
100
AcDbArc
 50
0.0
 51
180.0
  0
LINE
  5
250
330
21
100
AcDbEntity
  8
0
370
    -3
100
AcDbLine
 10
8.796345199831194
 20
6.065183085640456
 30
0.0
 11
9.736516140001186
 21
3.184871519055832
 31
0.0
  0
LINE
  5
251
330
21
100
AcDbEntity
  8
0
370
    -3
100
AcDbLine
 10
5.736516140001186
 20
3.184871519055832
 30
0.0
 11
6.676687080172997
 21
6.065183085640456
 31
0.0
  0
LINE
  5
252
330
21
100
AcDbEntity
  8
0
370
    -3
100
AcDbLine
 10
6.753457728938884
 20
6.248475639877597
 30
0.0
 11
8.719574551063488
 21
6.248475639877597
 31
0.0
  0
LINE
  5
253
330
21
100
AcDbEntity
  8
0
370
    -3
100
AcDbLine
 10
25.23651614000119
 20
23.75282478406734
 30
0.0
 11
20.23651614000119
 21
23.75282478406734
 31
0.0
  0
LINE
  5
254
330
21
100
AcDbEntity
  8
0
370
    -3
100
AcDbLine
 10
25.23651614000119
 20
19.75282478406734
 30
0.0
 11
25.23651614000119
 21
23.75282478406734
 31
0.0
  0
LINE
  5
255
330
21
100
AcDbEntity
  8
0
370
    -3
100
AcDbLine
 10
25.23651614000119
 20
19.75282478406734
 30
0.0
 11
20.23651614000119
 21
19.75282478406734
 31
0.0
  0
LINE
  5
256
330
21
100
AcDbEntity
  8
0
370
    -3
100
AcDbLine
 10
20.23651614000119
 20
23.75282478406734
 30
0.0
 11
20.23651614000119
 21
19.75282478406734
 31
0.0
  0
LINE
  5
257
330
21
100
AcDbEntity
  8
0
370
    -3
100
AcDbLine
 10
25.23651614000119
 20
2.752824784067343
 30
0.0
 11
25.23651614000119
 21
8.252824784067343
 31
0.0
  0
LINE
  5
258
330
21
100
AcDbEntity
  8
0
370
    -3
100
AcDbLine
 10
25.23651614000119
 20
8.252824784067343
 30
0.0
 11
25.23651614000119
 21
16.25282478406734
 31
0.0
  0
LINE
  5
259
330
21
100
AcDbEntity
  8
0
370
    -3
100
AcDbLine
 10
25.23651614000119
 20
16.25282478406734
 30
0.0
 11
25.23651614000119
 21
19.75282478406734
 31
0.0
  0
LINE
  5
25A
330
21
100
AcDbEntity
  8
0
370
    -3
100
AcDbLine
 10
20.23651614000119
 20
19.75282478406734
 30
0.0
 11
20.23651614000119
 21
16.25282478406734
 31
0.0
  0
LINE
  5
25B
330
21
100
AcDbEntity
  8
0
370
    -3
100
AcDbLine
 10
20.23651614000119
 20
16.25282478406734
 30
0.0
 11
20.23651614000119
 21
8.252824784067343
 31
0.0
  0
LINE
  5
25C
330
21
100
AcDbEntity
  8
0
370
    -3
100
AcDbLine
 10
20.23651614000119
 20
8.252824784067343
 30
0.0
 11
20.23651614000119
 21
2.752824784067343
 31
0.0
  0
LINE
  5
25D
330
21
100
AcDbEntity
  8
0
370
    -3
100
AcDbLine
 10
25.23651614000119
 20
16.25282478406734
 30
0.0
 11
20.23651614000119
 21
16.25282478406734
 31
0.0
  0
LINE
  5
25E
330
21
100
AcDbEntity
  8
0
370
    -3
100
AcDbLine
 10
25.23651614000119
 20
8.252824784067343
 30
0.0
 11
20.23651614000119
 21
8.252824784067343
 31
0.0
  0
LINE
  5
25F
330
21
100
AcDbEntity
  8
0
370
    -3
100
AcDbLine
 10
20.98651614000119
 20
15.53682464444773
 30
0.0
 11
24.48651614000119
 21
15.53682464444773
 31
0.0
  0
LINE
  5
260
330
21
100
AcDbEntity
  8
0
370
    -3
100
AcDbLine
 10
20.98651614000119
 20
13.74682429539735
 30
0.0
 11
20.98651614000119
 21
15.53682464444773
 31
0.0
  0
LINE
  5
261
330
21
100
AcDbEntity
  8
0
370
    -3
100
AcDbLine
 10
24.48651614000119
 20
13.74682429539735
 30
0.0
 11
20.98651614000119
 21
13.74682429539735
 31
0.0
  0
LINE
  5
262
330
21
100
AcDbEntity
  8
0
370
    -3
100
AcDbLine
 10
24.48651614000119
 20
15.53682464444773
 30
0.0
 11
24.48651614000119
 21
13.74682429539735
 31
0.0
  0
LINE
  5
263
330
21
100
AcDbEntity
  8
0
370
    -3
100
AcDbLine
 10
21.73651614000119
 20
11.83287463788747
 30
0.0
 11
20.73651614000119
 21
11.83287463788747
 31
0.0
  0
LINE
  5
264
330
21
100
AcDbEntity
  8
0
370
    -3
100
AcDbLine
 10
20.73651614000119
 20
11.83287463788747
 30
0.0
 11
20.73651614000119
 21
8.682437156767719
 31
0.0
  0
LINE
  5
265
330
21
100
AcDbEntity
  8
0
370
    -3
100
AcDbLine
 10
20.73651614000119
 20
8.682437156767719
 30
0.0
 11
24.73651614000119
 21
8.682437156767719
 31
0.0
  0
LINE
  5
266
330
21
100
AcDbEntity
  8
0
370
    -3
100
AcDbLine
 10
24.73651614000119
 20
8.682437156767719
 30
0.0
 11
24.73651614000119
 21
11.83287463788747
 31
0.0
  0
LINE
  5
267
330
21
100
AcDbEntity
  8
0
370
    -3
100
AcDbLine
 10
24.73651614000119
 20
11.83287463788747
 30
0.0
 11
23.73651614000119
 21
11.83287463788747
 31
0.0
  0
ARC
  5
268
330
21
100
AcDbEntity
  8
0
370
    -3
100
AcDbCircle
 10
22.73651614000119
 20
11.83287463788747
 30
0.0
 40
1.0
100
AcDbArc
 50
0.0
 51
180.0
  0
LINE
  5
269
330
21
100
AcDbEntity
  8
0
370
    -3
100
AcDbLine
 10
21.73649897698124
 20
11.74441017677736
 30
0.0
 11
20.73651614000119
 21
8.682437156767719
 31
0.0
  0
LINE
  5
26A
330
21
100
AcDbEntity
  8
0
370
    -3
100
AcDbLine
 10
21.73651614000119
 20
11.74445781479744
 30
0.0
 11
21.73651614000119
 21
11.83287463788747
 31
0.0
  0
LINE
  5
26B
330
21
100
AcDbEntity
  8
0
370
    -3
100
AcDbLine
 10
21.73651614000119
 20
11.74445781479744
 30
0.0
 11
21.73649897698124
 21
11.74441017677736
 31
0.0
  0
LINE
  5
26C
330
21
100
AcDbEntity
  8
0
370
    -3
100
AcDbLine
 10
23.73653330301204
 20
11.74441017677736
 30
0.0
 11
23.73651614000119
 21
11.74445781479744
 31
0.0
  0
LINE
  5
26D
330
21
100
AcDbEntity
  8
0
370
    -3
100
AcDbLine
 10
23.73651614000119
 20
11.83287463788747
 30
0.0
 11
23.73651614000119
 21
11.74445781479744
 31
0.0
  0
LINE
  5
26E
330
21
100
AcDbEntity
  8
0
370
    -3
100
AcDbLine
 10
24.73651614000119
 20
8.682437156767719
 30
0.0
 11
23.73653330301204
 21
11.74441017677736
 31
0.0
  0
LINE
  5
26F
330
21
100
AcDbEntity
  8
0
370
    -3
100
AcDbLine
 10
21.73649897698124
 20
11.74441017677736
 30
0.0
 11
23.73653330301204
 21
11.74441017677736
 31
0.0
  0
LINE
  5
270
330
21
100
AcDbEntity
  8
0
370
    -3
100
AcDbLine
 10
21.73651614000119
 20
11.7484756398776
 30
0.0
 11
23.73651614000119
 21
11.7484756398776
 31
0.0
  0
LINE
  5
271
330
21
100
AcDbEntity
  8
0
370
    -3
100
AcDbLine
 10
25.23651614000119
 20
2.752824784067343
 30
0.0
 11
20.23651614000119
 21
2.752824784067343
 31
0.0
  0
LINE
  5
272
330
21
100
AcDbEntity
  8
0
370
    -3
100
AcDbLine
 10
21.73651614000119
 20
6.065183085640456
 30
0.0
 11
20.73651614000119
 21
6.065183085640456
 31
0.0
  0
LINE
  5
273
330
21
100
AcDbEntity
  8
0
370
    -3
100
AcDbLine
 10
20.73651614000119
 20
6.065183085640456
 30
0.0
 11
20.73651614000119
 21
3.184871519055378
 31
0.0
  0
LINE
  5
274
330
21
100
AcDbEntity
  8
0
370
    -3
100
AcDbLine
 10
20.73651614000119
 20
3.184871519055378
 30
0.0
 11
24.73651614000119
 21
3.184871519055378
 31
0.0
  0
LINE
  5
275
330
21
100
AcDbEntity
  8
0
370
    -3
100
AcDbLine
 10
24.73651614000119
 20
3.184871519055378
 30
0.0
 11
24.73651614000119
 21
6.065183085640456
 31
0.0
  0
LINE
  5
276
330
21
100
AcDbEntity
  8
0
370
    -3
100
AcDbLine
 10
24.73651614000119
 20
6.065183085640456
 30
0.0
 11
23.73651614000119
 21
6.065183085640456
 31
0.0
  0
ARC
  5
277
330
21
100
AcDbEntity
  8
0
370
    -3
100
AcDbCircle
 10
22.73651614000119
 20
6.065183085640456
 30
0.0
 40
1.0
100
AcDbArc
 50
0.0
 51
180.0
  0
LINE
  5
278
330
21
100
AcDbEntity
  8
0
370
    -3
100
AcDbLine
 10
23.79634519983119
 20
6.065183085640456
 30
0.0
 11
24.73651614000119
 21
3.184871519055378
 31
0.0
  0
LINE
  5
279
330
21
100
AcDbEntity
  8
0
370
    -3
100
AcDbLine
 10
20.73651614000119
 20
3.184871519055378
 30
0.0
 11
21.676687080173
 21
6.065183085640456
 31
0.0
  0
LINE
  5
27A
330
21
100
AcDbEntity
  8
0
370
    -3
100
AcDbLine
 10
21.75345772893888
 20
6.248475639877597
 30
0.0
 11
23.71957455106349
 21
6.248475639877597
 31
0.0
  0
LINE
  5
27B
330
21
100
AcDbEntity
  8
0
370
    -3
100
AcDbLine
 10
35.23651614000119
 20
19.75282478406734
 30
0.0
 11
35.23651614000119
 21
23.75282478406734
 31
0.0
  0
LINE
  5
27C
330
21
100
AcDbEntity
  8
0
370
    -3
100
AcDbLine
 10
35.23651614000119
 20
16.25282478406734
 30
0.0
 11
35.23651614000119
 21
19.75282478406734
 31
0.0
  0
LINE
  5
27D
330
21
100
AcDbEntity
  8
0
370
    -3
100
AcDbLine
 10
35.23651614000119
 20
8.252824784067343
 30
0.0
 11
35.23651614000119
 21
16.25282478406734
 31
0.0
  0
LINE
  5
27E
330
21
100
AcDbEntity
  8
0
370
    -3
100
AcDbLine
 10
35.23651614000119
 20
2.752824784067343
 30
0.0
 11
35.23651614000119
 21
8.252824784067343
 31
0.0
  0
LINE
  5
27F
330
21
100
AcDbEntity
  8
0
370
    -3
100
AcDbLine
 10
35.23651614000119
 20
19.75282478406734
 30
0.0
 11
36.23651614000119
 21
19.75282478406734
 31
0.0
  0
LINE
  5
280
330
21
100
AcDbEntity
  8
0
370
    -3
100
AcDbLine
 10
35.23651614000119
 20
23.75282478406734
 30
0.0
 11
36.23651614000119
 21
23.75282478406734
 31
0.0
  0
LINE
  5
281
330
21
100
AcDbEntity
  8
0
370
    -3
100
AcDbLine
 10
36.23651614000119
 20
19.75282478406734
 30
0.0
 11
36.23651614000119
 21
23.75282478406734
 31
0.0
  0
LINE
  5
282
330
21
100
AcDbEntity
  8
0
370
    -3
100
AcDbLine
 10
36.23651614000119
 20
2.752824784067343
 30
0.0
 11
36.23651614000119
 21
8.252824784067343
 31
0.0
  0
LINE
  5
283
330
21
100
AcDbEntity
  8
0
370
    -3
100
AcDbLine
 10
36.23651614000119
 20
8.252824784067343
 30
0.0
 11
36.23651614000119
 21
16.25282478406734
 31
0.0
  0
LINE
  5
284
330
21
100
AcDbEntity
  8
0
370
    -3
100
AcDbLine
 10
36.23651614000119
 20
16.25282478406734
 30
0.0
 11
36.23651614000119
 21
19.75282478406734
 31
0.0
  0
LINE
  5
285
330
21
100
AcDbEntity
  8
0
370
    -3
100
AcDbLine
 10
35.23651614000119
 20
8.252824784067343
 30
0.0
 11
36.23651614000119
 21
8.252824784067343
 31
0.0
  0
LINE
  5
286
330
21
100
AcDbEntity
  8
0
370
    -3
100
AcDbLine
 10
35.23651614000119
 20
16.25282478406734
 30
0.0
 11
36.23651614000119
 21
16.25282478406734
 31
0.0
  0
LINE
  5
287
330
21
100
AcDbEntity
  8
0
370
    -3
100
AcDbLine
 10
35.23651614000119
 20
2.752824784067343
 30
0.0
 11
36.23651614000119
 21
2.752824784067343
 31
0.0
  0
LINE
  5
288
330
21
100
AcDbEntity
  8
0
370
    -3
100
AcDbLine
 10
-39.67426089999753
 20
23.7528247840678
 30
0.0
 11
-44.67426089999753
 21
23.7528247840678
 31
0.0
  0
LINE
  5
289
330
21
100
AcDbEntity
  8
0
370
    -3
100
AcDbLine
 10
-39.67426089999753
 20
19.7528247840678
 30
0.0
 11
-39.67426089999753
 21
23.7528247840678
 31
0.0
  0
LINE
  5
28A
330
21
100
AcDbEntity
  8
0
370
    -3
100
AcDbLine
 10
-39.67426089999753
 20
19.7528247840678
 30
0.0
 11
-44.67426089999753
 21
19.7528247840678
 31
0.0
  0
LINE
  5
28B
330
21
100
AcDbEntity
  8
0
370
    -3
100
AcDbLine
 10
-44.67426089999753
 20
23.7528247840678
 30
0.0
 11
-44.67426089999753
 21
19.7528247840678
 31
0.0
  0
LINE
  5
28C
330
21
100
AcDbEntity
  8
0
370
    -3
100
AcDbLine
 10
-44.67426089999753
 20
19.7528247840678
 30
0.0
 11
-44.67426089999753
 21
16.2528247840678
 31
0.0
  0
LINE
  5
28D
330
21
100
AcDbEntity
  8
0
370
    -3
100
AcDbLine
 10
-44.67426089999753
 20
16.2528247840678
 30
0.0
 11
-44.67426089999753
 21
8.252824784067798
 31
0.0
  0
LINE
  5
28E
330
21
100
AcDbEntity
  8
0
370
    -3
100
AcDbLine
 10
-44.67426089999753
 20
8.252824784067798
 30
0.0
 11
-44.67426089999753
 21
2.752824784067798
 31
0.0
  0
LINE
  5
28F
330
21
100
AcDbEntity
  8
0
370
    -3
100
AcDbLine
 10
-39.67426089999753
 20
2.752824784067798
 30
0.0
 11
-39.67426089999753
 21
8.252824784067798
 31
0.0
  0
LINE
  5
290
330
21
100
AcDbEntity
  8
0
370
    -3
100
AcDbLine
 10
-39.67426089999753
 20
8.252824784067798
 30
0.0
 11
-39.67426089999753
 21
16.2528247840678
 31
0.0
  0
LINE
  5
291
330
21
100
AcDbEntity
  8
0
370
    -3
100
AcDbLine
 10
-39.67426089999753
 20
16.2528247840678
 30
0.0
 11
-39.67426089999753
 21
19.7528247840678
 31
0.0
  0
LINE
  5
292
330
21
100
AcDbEntity
  8
0
370
    -3
100
AcDbLine
 10
-39.67426089999753
 20
16.2528247840678
 30
0.0
 11
-44.67426089999753
 21
16.2528247840678
 31
0.0
  0
LINE
  5
293
330
21
100
AcDbEntity
  8
0
370
    -3
100
AcDbLine
 10
-39.67426089999753
 20
8.252824784067798
 30
0.0
 11
-44.67426089999753
 21
8.252824784067798
 31
0.0
  0
LINE
  5
294
330
21
100
AcDbEntity
  8
0
370
    -3
100
AcDbLine
 10
-43.92426089999753
 20
15.53682464444773
 30
0.0
 11
-40.42426089999753
 21
15.53682464444773
 31
0.0
  0
LINE
  5
295
330
21
100
AcDbEntity
  8
0
370
    -3
100
AcDbLine
 10
-43.92426089999753
 20
13.7468242953978
 30
0.0
 11
-43.92426089999753
 21
15.53682464444773
 31
0.0
  0
LINE
  5
296
330
21
100
AcDbEntity
  8
0
370
    -3
100
AcDbLine
 10
-40.42426089999753
 20
13.7468242953978
 30
0.0
 11
-43.92426089999753
 21
13.7468242953978
 31
0.0
  0
LINE
  5
297
330
21
100
AcDbEntity
  8
0
370
    -3
100
AcDbLine
 10
-40.42426089999753
 20
15.53682464444773
 30
0.0
 11
-40.42426089999753
 21
13.7468242953978
 31
0.0
  0
LINE
  5
298
330
21
100
AcDbEntity
  8
0
370
    -3
100
AcDbLine
 10
-43.17426089999753
 20
11.83287463788747
 30
0.0
 11
-44.17426089999753
 21
11.83287463788747
 31
0.0
  0
LINE
  5
299
330
21
100
AcDbEntity
  8
0
370
    -3
100
AcDbLine
 10
-44.17426089999753
 20
11.83287463788747
 30
0.0
 11
-44.17426089999753
 21
8.682437156767719
 31
0.0
  0
LINE
  5
29A
330
21
100
AcDbEntity
  8
0
370
    -3
100
AcDbLine
 10
-44.17426089999753
 20
8.682437156767719
 30
0.0
 11
-40.17426089999753
 21
8.682437156767719
 31
0.0
  0
LINE
  5
29B
330
21
100
AcDbEntity
  8
0
370
    -3
100
AcDbLine
 10
-40.17426089999753
 20
8.682437156767719
 30
0.0
 11
-40.17426089999753
 21
11.83287463788747
 31
0.0
  0
LINE
  5
29C
330
21
100
AcDbEntity
  8
0
370
    -3
100
AcDbLine
 10
-40.17426089999753
 20
11.83287463788747
 30
0.0
 11
-41.17426089999753
 21
11.83287463788747
 31
0.0
  0
ARC
  5
29D
330
21
100
AcDbEntity
  8
0
370
    -3
100
AcDbCircle
 10
-42.17426089999753
 20
11.83287463788747
 30
0.0
 40
1.0
100
AcDbArc
 50
0.0
 51
180.0
  0
LINE
  5
29E
330
21
100
AcDbEntity
  8
0
370
    -3
100
AcDbLine
 10
-43.1742780630193
 20
11.74441017677782
 30
0.0
 11
-44.17426089999753
 21
8.682437156767719
 31
0.0
  0
LINE
  5
29F
330
21
100
AcDbEntity
  8
0
370
    -3
100
AcDbLine
 10
-43.17426089999753
 20
11.7444578147979
 30
0.0
 11
-43.17426089999753
 21
11.83287463788747
 31
0.0
  0
LINE
  5
2A0
330
21
100
AcDbEntity
  8
0
370
    -3
100
AcDbLine
 10
-43.17426089999753
 20
11.7444578147979
 30
0.0
 11
-43.1742780630193
 21
11.74441017677782
 31
0.0
  0
LINE
  5
2A1
330
21
100
AcDbEntity
  8
0
370
    -3
100
AcDbLine
 10
-41.1742437369885
 20
11.74441017677782
 30
0.0
 11
-41.17426089999753
 21
11.7444578147979
 31
0.0
  0
LINE
  5
2A2
330
21
100
AcDbEntity
  8
0
370
    -3
100
AcDbLine
 10
-41.17426089999753
 20
11.83287463788747
 30
0.0
 11
-41.17426089999753
 21
11.7444578147979
 31
0.0
  0
LINE
  5
2A3
330
21
100
AcDbEntity
  8
0
370
    -3
100
AcDbLine
 10
-40.17426089999753
 20
8.682437156767719
 30
0.0
 11
-41.1742437369885
 21
11.74441017677782
 31
0.0
  0
LINE
  5
2A4
330
21
100
AcDbEntity
  8
0
370
    -3
100
AcDbLine
 10
-43.1742780630193
 20
11.74441017677782
 30
0.0
 11
-41.1742437369885
 21
11.74441017677782
 31
0.0
  0
LINE
  5
2A5
330
21
100
AcDbEntity
  8
0
370
    -3
100
AcDbLine
 10
-43.17426089999753
 20
11.7484756398776
 30
0.0
 11
-41.17426089999753
 21
11.7484756398776
 31
0.0
  0
LINE
  5
2A6
330
21
100
AcDbEntity
  8
0
370
    -3
100
AcDbLine
 10
-39.67426089999753
 20
2.752824784067798
 30
0.0
 11
-44.67426089999753
 21
2.752824784067798
 31
0.0
  0
LINE
  5
2A7
330
21
100
AcDbEntity
  8
0
370
    -3
100
AcDbLine
 10
-43.17426089999753
 20
6.065183085640456
 30
0.0
 11
-44.17426089999753
 21
6.065183085640456
 31
0.0
  0
LINE
  5
2A8
330
21
100
AcDbEntity
  8
0
370
    -3
100
AcDbLine
 10
-44.17426089999753
 20
6.065183085640456
 30
0.0
 11
-44.17426089999753
 21
3.184871519055832
 31
0.0
  0
LINE
  5
2A9
330
21
100
AcDbEntity
  8
0
370
    -3
100
AcDbLine
 10
-44.17426089999753
 20
3.184871519055832
 30
0.0
 11
-40.17426089999753
 21
3.184871519055832
 31
0.0
  0
LINE
  5
2AA
330
21
100
AcDbEntity
  8
0
370
    -3
100
AcDbLine
 10
-40.17426089999753
 20
3.184871519055832
 30
0.0
 11
-40.17426089999753
 21
6.065183085640456
 31
0.0
  0
LINE
  5
2AB
330
21
100
AcDbEntity
  8
0
370
    -3
100
AcDbLine
 10
-40.17426089999753
 20
6.065183085640456
 30
0.0
 11
-41.17426089999753
 21
6.065183085640456
 31
0.0
  0
ARC
  5
2AC
330
21
100
AcDbEntity
  8
0
370
    -3
100
AcDbCircle
 10
-42.17426089999753
 20
6.065183085640456
 30
0.0
 40
1.0
100
AcDbArc
 50
0.0
 51
180.0
  0
LINE
  5
2AD
330
21
100
AcDbEntity
  8
0
370
    -3
100
AcDbLine
 10
-44.17426089999753
 20
3.184871519055832
 30
0.0
 11
-43.23408995982754
 21
6.065183085640456
 31
0.0
  0
LINE
  5
2AE
330
21
100
AcDbEntity
  8
0
370
    -3
100
AcDbLine
 10
-41.11443184016935
 20
6.065183085640456
 30
0.0
 11
-40.17426089999753
 21
3.184871519055832
 31
0.0
  0
LINE
  5
2AF
330
21
100
AcDbEntity
  8
0
370
    -3
100
AcDbLine
 10
-43.15731931106166
 20
6.248475639877597
 30
0.0
 11
-41.19120248893523
 21
6.248475639877597
 31
0.0
  0
LINE
  5
2B0
330
21
100
AcDbEntity
  8
0
370
    -3
100
AcDbLine
 10
79.10955022000053
 20
2.752824784067343
 30
0.0
 11
79.10955022000053
 21
8.252824784067343
 31
0.0
  0
LINE
  5
2B1
330
21
100
AcDbEntity
  8
0
370
    -3
100
AcDbLine
 10
79.10955022000053
 20
8.252824784067343
 30
0.0
 11
79.10955022000053
 21
16.25282478406734
 31
0.0
  0
LINE
  5
2B2
330
21
100
AcDbEntity
  8
0
370
    -3
100
AcDbLine
 10
79.10955022000053
 20
16.25282478406734
 30
0.0
 11
79.10955022000053
 21
19.75282478406734
 31
0.0
  0
LINE
  5
2B3
330
21
100
AcDbEntity
  8
0
370
    -3
100
AcDbLine
 10
79.10955022000053
 20
19.75282478406734
 30
0.0
 11
79.10955022000053
 21
23.75282478406734
 31
0.0
  0
LINE
  5
2B4
330
21
100
AcDbEntity
  8
0
370
    -3
100
AcDbLine
 10
74.10955022000053
 20
19.75282478406734
 30
0.0
 11
74.10955022000053
 21
16.25282478406734
 31
0.0
  0
LINE
  5
2B5
330
21
100
AcDbEntity
  8
0
370
    -3
100
AcDbLine
 10
74.10955022000053
 20
16.25282478406734
 30
0.0
 11
74.10955022000053
 21
8.252824784067343
 31
0.0
  0
LINE
  5
2B6
330
21
100
AcDbEntity
  8
0
370
    -3
100
AcDbLine
 10
74.10955022000053
 20
8.252824784067343
 30
0.0
 11
74.10955022000053
 21
2.752824784067343
 31
0.0
  0
LINE
  5
2B7
330
21
100
AcDbEntity
  8
0
370
    -3
100
AcDbLine
 10
74.10955022000053
 20
23.75282478406734
 30
0.0
 11
74.10955022000053
 21
19.75282478406734
 31
0.0
  0
LINE
  5
2B8
330
21
100
AcDbEntity
  8
0
370
    -3
100
AcDbLine
 10
79.10955022000053
 20
23.75282478406734
 30
0.0
 11
74.10955022000053
 21
23.75282478406734
 31
0.0
  0
LINE
  5
2B9
330
21
100
AcDbEntity
  8
0
370
    -3
100
AcDbLine
 10
79.10955022000053
 20
19.75282478406734
 30
0.0
 11
74.10955022000053
 21
19.75282478406734
 31
0.0
  0
LINE
  5
2BA
330
21
100
AcDbEntity
  8
0
370
    -3
100
AcDbLine
 10
79.10955022000053
 20
16.25282478406734
 30
0.0
 11
74.10955022000053
 21
16.25282478406734
 31
0.0
  0
LINE
  5
2BB
330
21
100
AcDbEntity
  8
0
370
    -3
100
AcDbLine
 10
79.10955022000053
 20
8.252824784067343
 30
0.0
 11
74.10955022000053
 21
8.252824784067343
 31
0.0
  0
LINE
  5
2BC
330
21
100
AcDbEntity
  8
0
370
    -3
100
AcDbLine
 10
74.85955022000053
 20
15.53682464444728
 30
0.0
 11
78.35955022000053
 21
15.53682464444728
 31
0.0
  0
LINE
  5
2BD
330
21
100
AcDbEntity
  8
0
370
    -3
100
AcDbLine
 10
74.85955022000053
 20
13.74682429539735
 30
0.0
 11
74.85955022000053
 21
15.53682464444728
 31
0.0
  0
LINE
  5
2BE
330
21
100
AcDbEntity
  8
0
370
    -3
100
AcDbLine
 10
78.35955022000053
 20
13.74682429539735
 30
0.0
 11
74.85955022000053
 21
13.74682429539735
 31
0.0
  0
LINE
  5
2BF
330
21
100
AcDbEntity
  8
0
370
    -3
100
AcDbLine
 10
78.35955022000053
 20
15.53682464444728
 30
0.0
 11
78.35955022000053
 21
13.74682429539735
 31
0.0
  0
LINE
  5
2C0
330
21
100
AcDbEntity
  8
0
370
    -3
100
AcDbLine
 10
75.60955022000053
 20
11.83287463788747
 30
0.0
 11
74.60955022000053
 21
11.83287463788747
 31
0.0
  0
LINE
  5
2C1
330
21
100
AcDbEntity
  8
0
370
    -3
100
AcDbLine
 10
74.60955022000053
 20
11.83287463788747
 30
0.0
 11
74.60955022000053
 21
8.682437156767264
 31
0.0
  0
LINE
  5
2C2
330
21
100
AcDbEntity
  8
0
370
    -3
100
AcDbLine
 10
74.60955022000053
 20
8.682437156767264
 30
0.0
 11
78.60955022000053
 21
8.682437156767264
 31
0.0
  0
LINE
  5
2C3
330
21
100
AcDbEntity
  8
0
370
    -3
100
AcDbLine
 10
78.60955022000053
 20
8.682437156767264
 30
0.0
 11
78.60955022000053
 21
11.83287463788747
 31
0.0
  0
LINE
  5
2C4
330
21
100
AcDbEntity
  8
0
370
    -3
100
AcDbLine
 10
78.60955022000053
 20
11.83287463788747
 30
0.0
 11
77.60955022000053
 21
11.83287463788747
 31
0.0
  0
ARC
  5
2C5
330
21
100
AcDbEntity
  8
0
370
    -3
100
AcDbCircle
 10
76.60955022000053
 20
11.83287463788747
 30
0.0
 40
1.0
100
AcDbArc
 50
0.0
 51
180.0
  0
LINE
  5
2C6
330
21
100
AcDbEntity
  8
0
370
    -3
100
AcDbLine
 10
77.60956738300956
 20
11.74441017677736
 30
0.0
 11
77.60955022000053
 21
11.74445781479744
 31
0.0
  0
LINE
  5
2C7
330
21
100
AcDbEntity
  8
0
370
    -3
100
AcDbLine
 10
77.60955022000053
 20
11.83287463788747
 30
0.0
 11
77.60955022000053
 21
11.74445781479744
 31
0.0
  0
LINE
  5
2C8
330
21
100
AcDbEntity
  8
0
370
    -3
100
AcDbLine
 10
78.60955022000053
 20
8.682437156767264
 30
0.0
 11
77.60956738300956
 21
11.74441017677736
 31
0.0
  0
LINE
  5
2C9
330
21
100
AcDbEntity
  8
0
370
    -3
100
AcDbLine
 10
75.60953305698058
 20
11.74441017677736
 30
0.0
 11
74.60955022000053
 21
8.682437156767264
 31
0.0
  0
LINE
  5
2CA
330
21
100
AcDbEntity
  8
0
370
    -3
100
AcDbLine
 10
75.60955022000053
 20
11.74445781479744
 30
0.0
 11
75.60955022000053
 21
11.83287463788747
 31
0.0
  0
LINE
  5
2CB
330
21
100
AcDbEntity
  8
0
370
    -3
100
AcDbLine
 10
75.60955022000053
 20
11.74445781479744
 30
0.0
 11
75.60953305698058
 21
11.74441017677736
 31
0.0
  0
LINE
  5
2CC
330
21
100
AcDbEntity
  8
0
370
    -3
100
AcDbLine
 10
75.60953305698058
 20
11.74441017677736
 30
0.0
 11
77.60956738300956
 21
11.74441017677736
 31
0.0
  0
LINE
  5
2CD
330
21
100
AcDbEntity
  8
0
370
    -3
100
AcDbLine
 10
75.60955022000053
 20
11.74847563987714
 30
0.0
 11
77.60955022000053
 21
11.74847563987714
 31
0.0
  0
LINE
  5
2CE
330
21
100
AcDbEntity
  8
0
370
    -3
100
AcDbLine
 10
79.10955022000053
 20
2.752824784067343
 30
0.0
 11
74.10955022000053
 21
2.752824784067343
 31
0.0
  0
LINE
  5
2CF
330
21
100
AcDbEntity
  8
0
370
    -3
100
AcDbLine
 10
75.60955022000053
 20
6.065183085640456
 30
0.0
 11
74.60955022000053
 21
6.065183085640456
 31
0.0
  0
LINE
  5
2D0
330
21
100
AcDbEntity
  8
0
370
    -3
100
AcDbLine
 10
74.60955022000053
 20
6.065183085640456
 30
0.0
 11
74.60955022000053
 21
3.184871519055378
 31
0.0
  0
LINE
  5
2D1
330
21
100
AcDbEntity
  8
0
370
    -3
100
AcDbLine
 10
74.60955022000053
 20
3.184871519055378
 30
0.0
 11
78.60955022000053
 21
3.184871519055378
 31
0.0
  0
LINE
  5
2D2
330
21
100
AcDbEntity
  8
0
370
    -3
100
AcDbLine
 10
78.60955022000053
 20
3.184871519055378
 30
0.0
 11
78.60955022000053
 21
6.065183085640456
 31
0.0
  0
LINE
  5
2D3
330
21
100
AcDbEntity
  8
0
370
    -3
100
AcDbLine
 10
78.60955022000053
 20
6.065183085640456
 30
0.0
 11
77.60955022000053
 21
6.065183085640456
 31
0.0
  0
ARC
  5
2D4
330
21
100
AcDbEntity
  8
0
370
    -3
100
AcDbCircle
 10
76.60955022000053
 20
6.065183085640456
 30
0.0
 40
1.0
100
AcDbArc
 50
0.0
 51
180.0
  0
LINE
  5
2D5
330
21
100
AcDbEntity
  8
0
370
    -3
100
AcDbLine
 10
77.66937927982872
 20
6.065183085640456
 30
0.0
 11
78.60955022000053
 21
3.184871519055378
 31
0.0
  0
LINE
  5
2D6
330
21
100
AcDbEntity
  8
0
370
    -3
100
AcDbLine
 10
74.60955022000053
 20
3.184871519055378
 30
0.0
 11
75.54972116017052
 21
6.065183085640456
 31
0.0
  0
LINE
  5
2D7
330
21
100
AcDbEntity
  8
0
370
    -3
100
AcDbLine
 10
75.62649180893823
 20
6.248475639877142
 30
0.0
 11
77.59260863106283
 21
6.248475639877142
 31
0.0
  0
LINE
  5
2D8
330
21
100
AcDbEntity
  8
0
370
    -3
100
AcDbLine
 10
-49.67426089999753
 20
19.7528247840678
 30
0.0
 11
-49.67426089999753
 21
16.2528247840678
 31
0.0
  0
LINE
  5
2D9
330
21
100
AcDbEntity
  8
0
370
    -3
100
AcDbLine
 10
-49.67426089999753
 20
16.2528247840678
 30
0.0
 11
-49.67426089999753
 21
8.252824784067798
 31
0.0
  0
LINE
  5
2DA
330
21
100
AcDbEntity
  8
0
370
    -3
100
AcDbLine
 10
-49.67426089999753
 20
8.252824784067798
 30
0.0
 11
-49.67426089999753
 21
2.752824784067798
 31
0.0
  0
LINE
  5
2DB
330
21
100
AcDbEntity
  8
0
370
    -3
100
AcDbLine
 10
-49.67426089999753
 20
23.7528247840678
 30
0.0
 11
-49.67426089999753
 21
19.7528247840678
 31
0.0
  0
LINE
  5
2DC
330
21
100
AcDbEntity
  8
0
370
    -3
100
AcDbLine
 10
-44.67426089999753
 20
2.752824784067798
 30
0.0
 11
-44.67426089999753
 21
8.252824784067798
 31
0.0
  0
LINE
  5
2DD
330
21
100
AcDbEntity
  8
0
370
    -3
100
AcDbLine
 10
-44.67426089999753
 20
8.252824784067798
 30
0.0
 11
-44.67426089999753
 21
16.2528247840678
 31
0.0
  0
LINE
  5
2DE
330
21
100
AcDbEntity
  8
0
370
    -3
100
AcDbLine
 10
-44.67426089999753
 20
16.2528247840678
 30
0.0
 11
-44.67426089999753
 21
19.7528247840678
 31
0.0
  0
LINE
  5
2DF
330
21
100
AcDbEntity
  8
0
370
    -3
100
AcDbLine
 10
-44.67426089999753
 20
19.7528247840678
 30
0.0
 11
-44.67426089999753
 21
23.7528247840678
 31
0.0
  0
LINE
  5
2E0
330
21
100
AcDbEntity
  8
0
370
    -3
100
AcDbLine
 10
-44.67426089999753
 20
23.7528247840678
 30
0.0
 11
-49.67426089999753
 21
23.7528247840678
 31
0.0
  0
LINE
  5
2E1
330
21
100
AcDbEntity
  8
0
370
    -3
100
AcDbLine
 10
-44.67426089999753
 20
19.7528247840678
 30
0.0
 11
-49.67426089999753
 21
19.7528247840678
 31
0.0
  0
LINE
  5
2E2
330
21
100
AcDbEntity
  8
0
370
    -3
100
AcDbLine
 10
-44.67426089999753
 20
16.2528247840678
 30
0.0
 11
-49.67426089999753
 21
16.2528247840678
 31
0.0
  0
LINE
  5
2E3
330
21
100
AcDbEntity
  8
0
370
    -3
100
AcDbLine
 10
-44.67426089999753
 20
8.252824784067798
 30
0.0
 11
-49.67426089999753
 21
8.252824784067798
 31
0.0
  0
LINE
  5
2E4
330
21
100
AcDbEntity
  8
0
370
    -3
100
AcDbLine
 10
-48.92426089999753
 20
15.53682464444773
 30
0.0
 11
-45.42426089999753
 21
15.53682464444773
 31
0.0
  0
LINE
  5
2E5
330
21
100
AcDbEntity
  8
0
370
    -3
100
AcDbLine
 10
-48.92426089999753
 20
13.7468242953978
 30
0.0
 11
-48.92426089999753
 21
15.53682464444773
 31
0.0
  0
LINE
  5
2E6
330
21
100
AcDbEntity
  8
0
370
    -3
100
AcDbLine
 10
-45.42426089999753
 20
13.7468242953978
 30
0.0
 11
-48.92426089999753
 21
13.7468242953978
 31
0.0
  0
LINE
  5
2E7
330
21
100
AcDbEntity
  8
0
370
    -3
100
AcDbLine
 10
-45.42426089999753
 20
15.53682464444773
 30
0.0
 11
-45.42426089999753
 21
13.7468242953978
 31
0.0
  0
LINE
  5
2E8
330
21
100
AcDbEntity
  8
0
370
    -3
100
AcDbLine
 10
-48.17426089999753
 20
11.83287463788747
 30
0.0
 11
-49.17426089999753
 21
11.83287463788747
 31
0.0
  0
LINE
  5
2E9
330
21
100
AcDbEntity
  8
0
370
    -3
100
AcDbLine
 10
-49.17426089999753
 20
11.83287463788747
 30
0.0
 11
-49.17426089999753
 21
8.682437156767719
 31
0.0
  0
LINE
  5
2EA
330
21
100
AcDbEntity
  8
0
370
    -3
100
AcDbLine
 10
-49.17426089999753
 20
8.682437156767719
 30
0.0
 11
-45.17426089999753
 21
8.682437156767719
 31
0.0
  0
LINE
  5
2EB
330
21
100
AcDbEntity
  8
0
370
    -3
100
AcDbLine
 10
-45.17426089999753
 20
8.682437156767719
 30
0.0
 11
-45.17426089999753
 21
11.83287463788747
 31
0.0
  0
LINE
  5
2EC
330
21
100
AcDbEntity
  8
0
370
    -3
100
AcDbLine
 10
-45.17426089999753
 20
11.83287463788747
 30
0.0
 11
-46.17426089999753
 21
11.83287463788747
 31
0.0
  0
ARC
  5
2ED
330
21
100
AcDbEntity
  8
0
370
    -3
100
AcDbCircle
 10
-47.17426089999753
 20
11.83287463788747
 30
0.0
 40
1.0
100
AcDbArc
 50
0.0
 51
180.0
  0
LINE
  5
2EE
330
21
100
AcDbEntity
  8
0
370
    -3
100
AcDbLine
 10
-46.1742437369885
 20
11.74441017677782
 30
0.0
 11
-46.17426089999753
 21
11.7444578147979
 31
0.0
  0
LINE
  5
2EF
330
21
100
AcDbEntity
  8
0
370
    -3
100
AcDbLine
 10
-46.17426089999753
 20
11.83287463788747
 30
0.0
 11
-46.17426089999753
 21
11.7444578147979
 31
0.0
  0
LINE
  5
2F0
330
21
100
AcDbEntity
  8
0
370
    -3
100
AcDbLine
 10
-45.17426089999753
 20
8.682437156767719
 30
0.0
 11
-46.1742437369885
 21
11.74441017677782
 31
0.0
  0
LINE
  5
2F1
330
21
100
AcDbEntity
  8
0
370
    -3
100
AcDbLine
 10
-48.1742780630193
 20
11.74441017677782
 30
0.0
 11
-49.17426089999753
 21
8.682437156767719
 31
0.0
  0
LINE
  5
2F2
330
21
100
AcDbEntity
  8
0
370
    -3
100
AcDbLine
 10
-48.17426089999753
 20
11.7444578147979
 30
0.0
 11
-48.17426089999753
 21
11.83287463788747
 31
0.0
  0
LINE
  5
2F3
330
21
100
AcDbEntity
  8
0
370
    -3
100
AcDbLine
 10
-48.17426089999753
 20
11.7444578147979
 30
0.0
 11
-48.1742780630193
 21
11.74441017677782
 31
0.0
  0
LINE
  5
2F4
330
21
100
AcDbEntity
  8
0
370
    -3
100
AcDbLine
 10
-48.1742780630193
 20
11.74441017677782
 30
0.0
 11
-46.1742437369885
 21
11.74441017677782
 31
0.0
  0
LINE
  5
2F5
330
21
100
AcDbEntity
  8
0
370
    -3
100
AcDbLine
 10
-48.17426089999753
 20
11.7484756398776
 30
0.0
 11
-46.17426089999753
 21
11.7484756398776
 31
0.0
  0
LINE
  5
2F6
330
21
100
AcDbEntity
  8
0
370
    -3
100
AcDbLine
 10
-44.67426089999753
 20
2.752824784067798
 30
0.0
 11
-49.67426089999753
 21
2.752824784067798
 31
0.0
  0
LINE
  5
2F7
330
21
100
AcDbEntity
  8
0
370
    -3
100
AcDbLine
 10
-48.17426089999753
 20
6.065183085640456
 30
0.0
 11
-49.17426089999753
 21
6.065183085640456
 31
0.0
  0
LINE
  5
2F8
330
21
100
AcDbEntity
  8
0
370
    -3
100
AcDbLine
 10
-49.17426089999753
 20
6.065183085640456
 30
0.0
 11
-49.17426089999753
 21
3.184871519055832
 31
0.0
  0
LINE
  5
2F9
330
21
100
AcDbEntity
  8
0
370
    -3
100
AcDbLine
 10
-49.17426089999753
 20
3.184871519055832
 30
0.0
 11
-45.17426089999753
 21
3.184871519055832
 31
0.0
  0
LINE
  5
2FA
330
21
100
AcDbEntity
  8
0
370
    -3
100
AcDbLine
 10
-45.17426089999753
 20
3.184871519055832
 30
0.0
 11
-45.17426089999753
 21
6.065183085640456
 31
0.0
  0
LINE
  5
2FB
330
21
100
AcDbEntity
  8
0
370
    -3
100
AcDbLine
 10
-45.17426089999753
 20
6.065183085640456
 30
0.0
 11
-46.17426089999753
 21
6.065183085640456
 31
0.0
  0
ARC
  5
2FC
330
21
100
AcDbEntity
  8
0
370
    -3
100
AcDbCircle
 10
-47.17426089999753
 20
6.065183085640456
 30
0.0
 40
1.0
100
AcDbArc
 50
0.0
 51
180.0
  0
LINE
  5
2FD
330
21
100
AcDbEntity
  8
0
370
    -3
100
AcDbLine
 10
-49.17426089999753
 20
3.184871519055832
 30
0.0
 11
-48.23408995982754
 21
6.065183085640456
 31
0.0
  0
LINE
  5
2FE
330
21
100
AcDbEntity
  8
0
370
    -3
100
AcDbLine
 10
-46.11443184016935
 20
6.065183085640456
 30
0.0
 11
-45.17426089999753
 21
3.184871519055832
 31
0.0
  0
LINE
  5
2FF
330
21
100
AcDbEntity
  8
0
370
    -3
100
AcDbLine
 10
-48.15731931106166
 20
6.248475639877597
 30
0.0
 11
-46.19120248893523
 21
6.248475639877597
 31
0.0
  0
LINE
  5
300
330
21
100
AcDbEntity
  8
0
370
    -3
100
AcDbLine
 10
-49.67426089999753
 20
19.7528247840678
 30
0.0
 11
-54.67426089999753
 21
19.7528247840678
 31
0.0
  0
LINE
  5
301
330
21
100
AcDbEntity
  8
0
370
    -3
100
AcDbLine
 10
-49.67426089999753
 20
2.752824784067798
 30
0.0
 11
-49.67426089999753
 21
8.252824784067798
 31
0.0
  0
LINE
  5
302
330
21
100
AcDbEntity
  8
0
370
    -3
100
AcDbLine
 10
-49.67426089999753
 20
8.252824784067798
 30
0.0
 11
-49.67426089999753
 21
16.2528247840678
 31
0.0
  0
LINE
  5
303
330
21
100
AcDbEntity
  8
0
370
    -3
100
AcDbLine
 10
-49.67426089999753
 20
16.2528247840678
 30
0.0
 11
-49.67426089999753
 21
19.7528247840678
 31
0.0
  0
LINE
  5
304
330
21
100
AcDbEntity
  8
0
370
    -3
100
AcDbLine
 10
-49.67426089999753
 20
19.7528247840678
 30
0.0
 11
-49.67426089999753
 21
23.7528247840678
 31
0.0
  0
LINE
  5
305
330
21
100
AcDbEntity
  8
0
370
    -3
100
AcDbLine
 10
-49.67426089999753
 20
23.7528247840678
 30
0.0
 11
-54.67426089999753
 21
23.7528247840678
 31
0.0
  0
LINE
  5
306
330
21
100
AcDbEntity
  8
0
370
    -3
100
AcDbLine
 10
-54.67426089999753
 20
23.7528247840678
 30
0.0
 11
-54.67426089999753
 21
19.7528247840678
 31
0.0
  0
LINE
  5
307
330
21
100
AcDbEntity
  8
0
370
    -3
100
AcDbLine
 10
-54.67426089999753
 20
19.7528247840678
 30
0.0
 11
-54.67426089999753
 21
16.2528247840678
 31
0.0
  0
LINE
  5
308
330
21
100
AcDbEntity
  8
0
370
    -3
100
AcDbLine
 10
-54.67426089999753
 20
16.2528247840678
 30
0.0
 11
-54.67426089999753
 21
8.252824784067798
 31
0.0
  0
LINE
  5
309
330
21
100
AcDbEntity
  8
0
370
    -3
100
AcDbLine
 10
-54.67426089999753
 20
8.252824784067798
 30
0.0
 11
-54.67426089999753
 21
2.752824784067798
 31
0.0
  0
LINE
  5
30A
330
21
100
AcDbEntity
  8
0
370
    -3
100
AcDbLine
 10
-49.67426089999753
 20
16.2528247840678
 30
0.0
 11
-54.67426089999753
 21
16.2528247840678
 31
0.0
  0
LINE
  5
30B
330
21
100
AcDbEntity
  8
0
370
    -3
100
AcDbLine
 10
-49.67426089999753
 20
8.252824784067798
 30
0.0
 11
-54.67426089999753
 21
8.252824784067798
 31
0.0
  0
LINE
  5
30C
330
21
100
AcDbEntity
  8
0
370
    -3
100
AcDbLine
 10
-53.92426089999753
 20
15.53682464444773
 30
0.0
 11
-50.42426089999753
 21
15.53682464444773
 31
0.0
  0
LINE
  5
30D
330
21
100
AcDbEntity
  8
0
370
    -3
100
AcDbLine
 10
-53.92426089999753
 20
13.7468242953978
 30
0.0
 11
-53.92426089999753
 21
15.53682464444773
 31
0.0
  0
LINE
  5
30E
330
21
100
AcDbEntity
  8
0
370
    -3
100
AcDbLine
 10
-50.42426089999753
 20
13.7468242953978
 30
0.0
 11
-53.92426089999753
 21
13.7468242953978
 31
0.0
  0
LINE
  5
30F
330
21
100
AcDbEntity
  8
0
370
    -3
100
AcDbLine
 10
-50.42426089999753
 20
15.53682464444773
 30
0.0
 11
-50.42426089999753
 21
13.7468242953978
 31
0.0
  0
LINE
  5
310
330
21
100
AcDbEntity
  8
0
370
    -3
100
AcDbLine
 10
-53.17426089999753
 20
11.83287463788747
 30
0.0
 11
-54.17426089999753
 21
11.83287463788747
 31
0.0
  0
LINE
  5
311
330
21
100
AcDbEntity
  8
0
370
    -3
100
AcDbLine
 10
-54.17426089999753
 20
11.83287463788747
 30
0.0
 11
-54.17426089999753
 21
8.682437156767719
 31
0.0
  0
LINE
  5
312
330
21
100
AcDbEntity
  8
0
370
    -3
100
AcDbLine
 10
-54.17426089999753
 20
8.682437156767719
 30
0.0
 11
-50.17426089999753
 21
8.682437156767719
 31
0.0
  0
LINE
  5
313
330
21
100
AcDbEntity
  8
0
370
    -3
100
AcDbLine
 10
-50.17426089999753
 20
8.682437156767719
 30
0.0
 11
-50.17426089999753
 21
11.83287463788747
 31
0.0
  0
LINE
  5
314
330
21
100
AcDbEntity
  8
0
370
    -3
100
AcDbLine
 10
-50.17426089999753
 20
11.83287463788747
 30
0.0
 11
-51.17426089999753
 21
11.83287463788747
 31
0.0
  0
ARC
  5
315
330
21
100
AcDbEntity
  8
0
370
    -3
100
AcDbCircle
 10
-52.17426089999753
 20
11.83287463788747
 30
0.0
 40
1.0
100
AcDbArc
 50
0.0
 51
180.0
  0
LINE
  5
316
330
21
100
AcDbEntity
  8
0
370
    -3
100
AcDbLine
 10
-51.1742437369885
 20
11.74441017677782
 30
0.0
 11
-51.17426089999753
 21
11.7444578147979
 31
0.0
  0
LINE
  5
317
330
21
100
AcDbEntity
  8
0
370
    -3
100
AcDbLine
 10
-51.17426089999753
 20
11.83287463788747
 30
0.0
 11
-51.17426089999753
 21
11.7444578147979
 31
0.0
  0
LINE
  5
318
330
21
100
AcDbEntity
  8
0
370
    -3
100
AcDbLine
 10
-50.17426089999753
 20
8.682437156767719
 30
0.0
 11
-51.1742437369885
 21
11.74441017677782
 31
0.0
  0
LINE
  5
319
330
21
100
AcDbEntity
  8
0
370
    -3
100
AcDbLine
 10
-53.1742780630193
 20
11.74441017677782
 30
0.0
 11
-54.17426089999753
 21
8.682437156767719
 31
0.0
  0
LINE
  5
31A
330
21
100
AcDbEntity
  8
0
370
    -3
100
AcDbLine
 10
-53.17426089999753
 20
11.7444578147979
 30
0.0
 11
-53.17426089999753
 21
11.83287463788747
 31
0.0
  0
LINE
  5
31B
330
21
100
AcDbEntity
  8
0
370
    -3
100
AcDbLine
 10
-53.17426089999753
 20
11.7444578147979
 30
0.0
 11
-53.1742780630193
 21
11.74441017677782
 31
0.0
  0
LINE
  5
31C
330
21
100
AcDbEntity
  8
0
370
    -3
100
AcDbLine
 10
-53.1742780630193
 20
11.74441017677782
 30
0.0
 11
-51.1742437369885
 21
11.74441017677782
 31
0.0
  0
LINE
  5
31D
330
21
100
AcDbEntity
  8
0
370
    -3
100
AcDbLine
 10
-53.17426089999753
 20
11.7484756398776
 30
0.0
 11
-51.17426089999753
 21
11.7484756398776
 31
0.0
  0
LINE
  5
31E
330
21
100
AcDbEntity
  8
0
370
    -3
100
AcDbLine
 10
-49.67426089999753
 20
2.752824784067798
 30
0.0
 11
-54.67426089999753
 21
2.752824784067798
 31
0.0
  0
LINE
  5
31F
330
21
100
AcDbEntity
  8
0
370
    -3
100
AcDbLine
 10
-53.17426089999753
 20
6.065183085640456
 30
0.0
 11
-54.17426089999753
 21
6.065183085640456
 31
0.0
  0
LINE
  5
320
330
21
100
AcDbEntity
  8
0
370
    -3
100
AcDbLine
 10
-54.17426089999753
 20
6.065183085640456
 30
0.0
 11
-54.17426089999753
 21
3.184871519055832
 31
0.0
  0
LINE
  5
321
330
21
100
AcDbEntity
  8
0
370
    -3
100
AcDbLine
 10
-54.17426089999753
 20
3.184871519055832
 30
0.0
 11
-50.17426089999753
 21
3.184871519055832
 31
0.0
  0
LINE
  5
322
330
21
100
AcDbEntity
  8
0
370
    -3
100
AcDbLine
 10
-50.17426089999753
 20
3.184871519055832
 30
0.0
 11
-50.17426089999753
 21
6.065183085640456
 31
0.0
  0
LINE
  5
323
330
21
100
AcDbEntity
  8
0
370
    -3
100
AcDbLine
 10
-50.17426089999753
 20
6.065183085640456
 30
0.0
 11
-51.17426089999753
 21
6.065183085640456
 31
0.0
  0
ARC
  5
324
330
21
100
AcDbEntity
  8
0
370
    -3
100
AcDbCircle
 10
-52.17426089999753
 20
6.065183085640456
 30
0.0
 40
1.0
100
AcDbArc
 50
0.0
 51
180.0
  0
LINE
  5
325
330
21
100
AcDbEntity
  8
0
370
    -3
100
AcDbLine
 10
-51.11443184016935
 20
6.065183085640456
 30
0.0
 11
-50.17426089999753
 21
3.184871519055832
 31
0.0
  0
LINE
  5
326
330
21
100
AcDbEntity
  8
0
370
    -3
100
AcDbLine
 10
-54.17426089999753
 20
3.184871519055832
 30
0.0
 11
-53.23408995982754
 21
6.065183085640456
 31
0.0
  0
LINE
  5
327
330
21
100
AcDbEntity
  8
0
370
    -3
100
AcDbLine
 10
-53.15731931106166
 20
6.248475639877597
 30
0.0
 11
-51.19120248893523
 21
6.248475639877597
 31
0.0
  0
LINE
  5
328
330
21
100
AcDbEntity
  8
0
370
    -3
100
AcDbLine
 10
-39.67426089999753
 20
19.7528247840678
 30
0.0
 11
-39.67426089999753
 21
23.7528247840678
 31
0.0
  0
LINE
  5
329
330
21
100
AcDbEntity
  8
0
370
    -3
100
AcDbLine
 10
-39.67426089999753
 20
16.2528247840678
 30
0.0
 11
-39.67426089999753
 21
19.7528247840678
 31
0.0
  0
LINE
  5
32A
330
21
100
AcDbEntity
  8
0
370
    -3
100
AcDbLine
 10
-39.67426089999753
 20
8.252824784067798
 30
0.0
 11
-39.67426089999753
 21
16.2528247840678
 31
0.0
  0
LINE
  5
32B
330
21
100
AcDbEntity
  8
0
370
    -3
100
AcDbLine
 10
-39.67426089999753
 20
2.752824784067798
 30
0.0
 11
-39.67426089999753
 21
8.252824784067798
 31
0.0
  0
LINE
  5
32C
330
21
100
AcDbEntity
  8
0
370
    -3
100
AcDbLine
 10
-38.67426089999753
 20
2.752824784067798
 30
0.0
 11
-38.67426089999753
 21
8.252824784067798
 31
0.0
  0
LINE
  5
32D
330
21
100
AcDbEntity
  8
0
370
    -3
100
AcDbLine
 10
-38.67426089999753
 20
8.252824784067798
 30
0.0
 11
-38.67426089999753
 21
16.2528247840678
 31
0.0
  0
LINE
  5
32E
330
21
100
AcDbEntity
  8
0
370
    -3
100
AcDbLine
 10
-38.67426089999753
 20
16.2528247840678
 30
0.0
 11
-38.67426089999753
 21
19.7528247840678
 31
0.0
  0
LINE
  5
32F
330
21
100
AcDbEntity
  8
0
370
    -3
100
AcDbLine
 10
-38.67426089999753
 20
19.7528247840678
 30
0.0
 11
-38.67426089999753
 21
23.7528247840678
 31
0.0
  0
LINE
  5
330
330
21
100
AcDbEntity
  8
0
370
    -3
100
AcDbLine
 10
-39.67426089999753
 20
23.7528247840678
 30
0.0
 11
-38.67426089999753
 21
23.7528247840678
 31
0.0
  0
LINE
  5
331
330
21
100
AcDbEntity
  8
0
370
    -3
100
AcDbLine
 10
-39.67426089999753
 20
19.7528247840678
 30
0.0
 11
-38.67426089999753
 21
19.7528247840678
 31
0.0
  0
LINE
  5
332
330
21
100
AcDbEntity
  8
0
370
    -3
100
AcDbLine
 10
-39.67426089999753
 20
16.2528247840678
 30
0.0
 11
-38.67426089999753
 21
16.2528247840678
 31
0.0
  0
LINE
  5
333
330
21
100
AcDbEntity
  8
0
370
    -3
100
AcDbLine
 10
-39.67426089999753
 20
8.252824784067798
 30
0.0
 11
-38.67426089999753
 21
8.252824784067798
 31
0.0
  0
LINE
  5
334
330
21
100
AcDbEntity
  8
0
370
    -3
100
AcDbLine
 10
-39.67426089999753
 20
2.752824784067798
 30
0.0
 11
-38.67426089999753
 21
2.752824784067798
 31
0.0
  0
LINE
  5
335
330
21
100
AcDbEntity
  8
0
370
    -3
100
AcDbLine
 10
80.10955022000053
 20
2.752824784067343
 30
0.0
 11
80.10955022000053
 21
8.252824784067343
 31
0.0
  0
LINE
  5
336
330
21
100
AcDbEntity
  8
0
370
    -3
100
AcDbLine
 10
80.10955022000053
 20
8.252824784067343
 30
0.0
 11
80.10955022000053
 21
16.25282478406734
 31
0.0
  0
LINE
  5
337
330
21
100
AcDbEntity
  8
0
370
    -3
100
AcDbLine
 10
80.10955022000053
 20
16.25282478406734
 30
0.0
 11
80.10955022000053
 21
19.75282478406734
 31
0.0
  0
LINE
  5
338
330
21
100
AcDbEntity
  8
0
370
    -3
100
AcDbLine
 10
80.10955022000053
 20
19.75282478406734
 30
0.0
 11
80.10955022000053
 21
23.75282478406734
 31
0.0
  0
LINE
  5
339
330
21
100
AcDbEntity
  8
0
370
    -3
100
AcDbLine
 10
79.10955022000053
 20
19.75282478406734
 30
0.0
 11
79.10955022000053
 21
23.75282478406734
 31
0.0
  0
LINE
  5
33A
330
21
100
AcDbEntity
  8
0
370
    -3
100
AcDbLine
 10
79.10955022000053
 20
16.25282478406734
 30
0.0
 11
79.10955022000053
 21
19.75282478406734
 31
0.0
  0
LINE
  5
33B
330
21
100
AcDbEntity
  8
0
370
    -3
100
AcDbLine
 10
79.10955022000053
 20
8.252824784067343
 30
0.0
 11
79.10955022000053
 21
16.25282478406734
 31
0.0
  0
LINE
  5
33C
330
21
100
AcDbEntity
  8
0
370
    -3
100
AcDbLine
 10
79.10955022000053
 20
2.752824784067343
 30
0.0
 11
79.10955022000053
 21
8.252824784067343
 31
0.0
  0
LINE
  5
33D
330
21
100
AcDbEntity
  8
0
370
    -3
100
AcDbLine
 10
79.10955022000053
 20
19.75282478406734
 30
0.0
 11
80.10955022000053
 21
19.75282478406734
 31
0.0
  0
LINE
  5
33E
330
21
100
AcDbEntity
  8
0
370
    -3
100
AcDbLine
 10
79.10955022000053
 20
23.75282478406734
 30
0.0
 11
80.10955022000053
 21
23.75282478406734
 31
0.0
  0
LINE
  5
33F
330
21
100
AcDbEntity
  8
0
370
    -3
100
AcDbLine
 10
79.10955022000053
 20
8.252824784067343
 30
0.0
 11
80.10955022000053
 21
8.252824784067343
 31
0.0
  0
LINE
  5
340
330
21
100
AcDbEntity
  8
0
370
    -3
100
AcDbLine
 10
79.10955022000053
 20
16.25282478406734
 30
0.0
 11
80.10955022000053
 21
16.25282478406734
 31
0.0
  0
LINE
  5
341
330
21
100
AcDbEntity
  8
0
370
    -3
100
AcDbLine
 10
79.10955022000053
 20
2.752824784067343
 30
0.0
 11
80.10955022000053
 21
2.752824784067343
 31
0.0
  0
LINE
  5
342
330
21
100
AcDbEntity
  8
0
370
    -3
100
AcDbLine
 10
-62.02626089999831
 20
2.752824784067798
 30
0.0
 11
-62.02626089999831
 21
8.252824784067798
 31
0.0
  0
LINE
  5
343
330
21
100
AcDbEntity
  8
0
370
    -3
100
AcDbLine
 10
-62.02626089999831
 20
8.252824784067798
 30
0.0
 11
-62.02626089999831
 21
16.2528247840678
 31
0.0
  0
LINE
  5
344
330
21
100
AcDbEntity
  8
0
370
    -3
100
AcDbLine
 10
-62.02626089999831
 20
16.2528247840678
 30
0.0
 11
-62.02626089999831
 21
19.7528247840678
 31
0.0
  0
LINE
  5
345
330
21
100
AcDbEntity
  8
0
370
    -3
100
AcDbLine
 10
-62.02626089999831
 20
19.7528247840678
 30
0.0
 11
-62.02626089999831
 21
23.7528247840678
 31
0.0
  0
LINE
  5
346
330
21
100
AcDbEntity
  8
0
370
    -3
100
AcDbLine
 10
-62.02626089999831
 20
19.7528247840678
 30
0.0
 11
-67.0262608999983
 21
19.7528247840678
 31
0.0
  0
LINE
  5
347
330
21
100
AcDbEntity
  8
0
370
    -3
100
AcDbLine
 10
-62.02626089999831
 20
23.7528247840678
 30
0.0
 11
-67.0262608999983
 21
23.7528247840678
 31
0.0
  0
LINE
  5
348
330
21
100
AcDbEntity
  8
0
370
    -3
100
AcDbLine
 10
-67.0262608999983
 20
19.7528247840678
 30
0.0
 11
-67.0262608999983
 21
16.2528247840678
 31
0.0
  0
LINE
  5
349
330
21
100
AcDbEntity
  8
0
370
    -3
100
AcDbLine
 10
-67.0262608999983
 20
16.2528247840678
 30
0.0
 11
-67.0262608999983
 21
8.252824784067798
 31
0.0
  0
LINE
  5
34A
330
21
100
AcDbEntity
  8
0
370
    -3
100
AcDbLine
 10
-67.0262608999983
 20
8.252824784067798
 30
0.0
 11
-67.0262608999983
 21
2.752824784067798
 31
0.0
  0
LINE
  5
34B
330
21
100
AcDbEntity
  8
0
370
    -3
100
AcDbLine
 10
-67.0262608999983
 20
23.7528247840678
 30
0.0
 11
-67.0262608999983
 21
19.7528247840678
 31
0.0
  0
LINE
  5
34C
330
21
100
AcDbEntity
  8
0
370
    -3
100
AcDbLine
 10
-62.02626089999831
 20
16.2528247840678
 30
0.0
 11
-67.0262608999983
 21
16.2528247840678
 31
0.0
  0
LINE
  5
34D
330
21
100
AcDbEntity
  8
0
370
    -3
100
AcDbLine
 10
-62.02626089999831
 20
8.252824784067798
 30
0.0
 11
-67.0262608999983
 21
8.252824784067798
 31
0.0
  0
LINE
  5
34E
330
21
100
AcDbEntity
  8
0
370
    -3
100
AcDbLine
 10
-66.2762608999983
 20
15.53682464444773
 30
0.0
 11
-62.77626089999831
 21
15.53682464444773
 31
0.0
  0
LINE
  5
34F
330
21
100
AcDbEntity
  8
0
370
    -3
100
AcDbLine
 10
-66.2762608999983
 20
13.7468242953978
 30
0.0
 11
-66.2762608999983
 21
15.53682464444773
 31
0.0
  0
LINE
  5
350
330
21
100
AcDbEntity
  8
0
370
    -3
100
AcDbLine
 10
-62.77626089999831
 20
13.7468242953978
 30
0.0
 11
-66.2762608999983
 21
13.7468242953978
 31
0.0
  0
LINE
  5
351
330
21
100
AcDbEntity
  8
0
370
    -3
100
AcDbLine
 10
-62.77626089999831
 20
15.53682464444773
 30
0.0
 11
-62.77626089999831
 21
13.7468242953978
 31
0.0
  0
LINE
  5
352
330
21
100
AcDbEntity
  8
0
370
    -3
100
AcDbLine
 10
-65.5262608999983
 20
11.83287463788747
 30
0.0
 11
-66.5262608999983
 21
11.83287463788747
 31
0.0
  0
LINE
  5
353
330
21
100
AcDbEntity
  8
0
370
    -3
100
AcDbLine
 10
-66.5262608999983
 20
11.83287463788747
 30
0.0
 11
-66.5262608999983
 21
8.682437156767719
 31
0.0
  0
LINE
  5
354
330
21
100
AcDbEntity
  8
0
370
    -3
100
AcDbLine
 10
-66.5262608999983
 20
8.682437156767719
 30
0.0
 11
-62.52626089999831
 21
8.682437156767719
 31
0.0
  0
LINE
  5
355
330
21
100
AcDbEntity
  8
0
370
    -3
100
AcDbLine
 10
-62.52626089999831
 20
8.682437156767719
 30
0.0
 11
-62.52626089999831
 21
11.83287463788747
 31
0.0
  0
LINE
  5
356
330
21
100
AcDbEntity
  8
0
370
    -3
100
AcDbLine
 10
-62.52626089999831
 20
11.83287463788747
 30
0.0
 11
-63.52626089999831
 21
11.83287463788747
 31
0.0
  0
ARC
  5
357
330
21
100
AcDbEntity
  8
0
370
    -3
100
AcDbCircle
 10
-64.5262608999983
 20
11.83287463788747
 30
0.0
 40
1.0
100
AcDbArc
 50
0.0
 51
180.0
  0
LINE
  5
358
330
21
100
AcDbEntity
  8
0
370
    -3
100
AcDbLine
 10
-63.52624373698927
 20
11.74441017677782
 30
0.0
 11
-63.52626089999831
 21
11.7444578147979
 31
0.0
  0
LINE
  5
359
330
21
100
AcDbEntity
  8
0
370
    -3
100
AcDbLine
 10
-63.52626089999831
 20
11.83287463788747
 30
0.0
 11
-63.52626089999831
 21
11.7444578147979
 31
0.0
  0
LINE
  5
35A
330
21
100
AcDbEntity
  8
0
370
    -3
100
AcDbLine
 10
-62.52626089999831
 20
8.682437156767719
 30
0.0
 11
-63.52624373698927
 21
11.74441017677782
 31
0.0
  0
LINE
  5
35B
330
21
100
AcDbEntity
  8
0
370
    -3
100
AcDbLine
 10
-65.52627806301825
 20
11.74441017677782
 30
0.0
 11
-66.5262608999983
 21
8.682437156767719
 31
0.0
  0
LINE
  5
35C
330
21
100
AcDbEntity
  8
0
370
    -3
100
AcDbLine
 10
-65.5262608999983
 20
11.7444578147979
 30
0.0
 11
-65.5262608999983
 21
11.83287463788747
 31
0.0
  0
LINE
  5
35D
330
21
100
AcDbEntity
  8
0
370
    -3
100
AcDbLine
 10
-65.5262608999983
 20
11.7444578147979
 30
0.0
 11
-65.52627806301825
 21
11.74441017677782
 31
0.0
  0
LINE
  5
35E
330
21
100
AcDbEntity
  8
0
370
    -3
100
AcDbLine
 10
-65.52627806301825
 20
11.74441017677782
 30
0.0
 11
-63.52624373698927
 21
11.74441017677782
 31
0.0
  0
LINE
  5
35F
330
21
100
AcDbEntity
  8
0
370
    -3
100
AcDbLine
 10
-65.5262608999983
 20
11.7484756398776
 30
0.0
 11
-63.52626089999831
 21
11.7484756398776
 31
0.0
  0
LINE
  5
360
330
21
100
AcDbEntity
  8
0
370
    -3
100
AcDbLine
 10
-62.02626089999831
 20
2.752824784067798
 30
0.0
 11
-67.0262608999983
 21
2.752824784067798
 31
0.0
  0
LINE
  5
361
330
21
100
AcDbEntity
  8
0
370
    -3
100
AcDbLine
 10
-65.5262608999983
 20
6.065183085640456
 30
0.0
 11
-66.5262608999983
 21
6.065183085640456
 31
0.0
  0
LINE
  5
362
330
21
100
AcDbEntity
  8
0
370
    -3
100
AcDbLine
 10
-66.5262608999983
 20
6.065183085640456
 30
0.0
 11
-66.5262608999983
 21
3.184871519055832
 31
0.0
  0
LINE
  5
363
330
21
100
AcDbEntity
  8
0
370
    -3
100
AcDbLine
 10
-66.5262608999983
 20
3.184871519055832
 30
0.0
 11
-62.52626089999831
 21
3.184871519055832
 31
0.0
  0
LINE
  5
364
330
21
100
AcDbEntity
  8
0
370
    -3
100
AcDbLine
 10
-62.52626089999831
 20
3.184871519055832
 30
0.0
 11
-62.52626089999831
 21
6.065183085640456
 31
0.0
  0
LINE
  5
365
330
21
100
AcDbEntity
  8
0
370
    -3
100
AcDbLine
 10
-62.52626089999831
 20
6.065183085640456
 30
0.0
 11
-63.52626089999831
 21
6.065183085640456
 31
0.0
  0
ARC
  5
366
330
21
100
AcDbEntity
  8
0
370
    -3
100
AcDbCircle
 10
-64.5262608999983
 20
6.065183085640456
 30
0.0
 40
1.0
100
AcDbArc
 50
0.0
 51
180.0
  0
LINE
  5
367
330
21
100
AcDbEntity
  8
0
370
    -3
100
AcDbLine
 10
-66.5262608999983
 20
3.184871519055832
 30
0.0
 11
-65.58608995982831
 21
6.065183085640456
 31
0.0
  0
LINE
  5
368
330
21
100
AcDbEntity
  8
0
370
    -3
100
AcDbLine
 10
-63.46643184017012
 20
6.065183085640456
 30
0.0
 11
-62.52626089999831
 21
3.184871519055832
 31
0.0
  0
LINE
  5
369
330
21
100
AcDbEntity
  8
0
370
    -3
100
AcDbLine
 10
-65.50931931106061
 20
6.248475639877597
 30
0.0
 11
-63.543202488936
 21
6.248475639877597
 31
0.0
  0
LINE
  5
36A
330
21
100
AcDbEntity
  8
0
370
    -3
100
AcDbLine
 10
-67.0262608999983
 20
23.7528247840678
 30
0.0
 11
-72.0262608999983
 21
23.7528247840678
 31
0.0
  0
LINE
  5
36B
330
21
100
AcDbEntity
  8
0
370
    -3
100
AcDbLine
 10
-67.0262608999983
 20
19.7528247840678
 30
0.0
 11
-67.0262608999983
 21
23.7528247840678
 31
0.0
  0
LINE
  5
36C
330
21
100
AcDbEntity
  8
0
370
    -3
100
AcDbLine
 10
-67.0262608999983
 20
19.7528247840678
 30
0.0
 11
-72.0262608999983
 21
19.7528247840678
 31
0.0
  0
LINE
  5
36D
330
21
100
AcDbEntity
  8
0
370
    -3
100
AcDbLine
 10
-72.0262608999983
 20
23.7528247840678
 30
0.0
 11
-72.0262608999983
 21
19.7528247840678
 31
0.0
  0
LINE
  5
36E
330
21
100
AcDbEntity
  8
0
370
    -3
100
AcDbLine
 10
-67.0262608999983
 20
2.752824784067798
 30
0.0
 11
-67.0262608999983
 21
8.252824784067798
 31
0.0
  0
LINE
  5
36F
330
21
100
AcDbEntity
  8
0
370
    -3
100
AcDbLine
 10
-67.0262608999983
 20
8.252824784067798
 30
0.0
 11
-67.0262608999983
 21
16.2528247840678
 31
0.0
  0
LINE
  5
370
330
21
100
AcDbEntity
  8
0
370
    -3
100
AcDbLine
 10
-67.0262608999983
 20
16.2528247840678
 30
0.0
 11
-67.0262608999983
 21
19.7528247840678
 31
0.0
  0
LINE
  5
371
330
21
100
AcDbEntity
  8
0
370
    -3
100
AcDbLine
 10
-72.0262608999983
 20
19.7528247840678
 30
0.0
 11
-72.0262608999983
 21
16.2528247840678
 31
0.0
  0
LINE
  5
372
330
21
100
AcDbEntity
  8
0
370
    -3
100
AcDbLine
 10
-72.0262608999983
 20
16.2528247840678
 30
0.0
 11
-72.0262608999983
 21
8.252824784067798
 31
0.0
  0
LINE
  5
373
330
21
100
AcDbEntity
  8
0
370
    -3
100
AcDbLine
 10
-72.0262608999983
 20
8.252824784067798
 30
0.0
 11
-72.0262608999983
 21
2.752824784067798
 31
0.0
  0
LINE
  5
374
330
21
100
AcDbEntity
  8
0
370
    -3
100
AcDbLine
 10
-67.0262608999983
 20
16.2528247840678
 30
0.0
 11
-72.0262608999983
 21
16.2528247840678
 31
0.0
  0
LINE
  5
375
330
21
100
AcDbEntity
  8
0
370
    -3
100
AcDbLine
 10
-67.0262608999983
 20
8.252824784067798
 30
0.0
 11
-72.0262608999983
 21
8.252824784067798
 31
0.0
  0
LINE
  5
376
330
21
100
AcDbEntity
  8
0
370
    -3
100
AcDbLine
 10
-71.2762608999983
 20
15.53682464444773
 30
0.0
 11
-67.7762608999983
 21
15.53682464444773
 31
0.0
  0
LINE
  5
377
330
21
100
AcDbEntity
  8
0
370
    -3
100
AcDbLine
 10
-71.2762608999983
 20
13.7468242953978
 30
0.0
 11
-71.2762608999983
 21
15.53682464444773
 31
0.0
  0
LINE
  5
378
330
21
100
AcDbEntity
  8
0
370
    -3
100
AcDbLine
 10
-67.7762608999983
 20
13.7468242953978
 30
0.0
 11
-71.2762608999983
 21
13.7468242953978
 31
0.0
  0
LINE
  5
379
330
21
100
AcDbEntity
  8
0
370
    -3
100
AcDbLine
 10
-67.7762608999983
 20
15.53682464444773
 30
0.0
 11
-67.7762608999983
 21
13.7468242953978
 31
0.0
  0
LINE
  5
37A
330
21
100
AcDbEntity
  8
0
370
    -3
100
AcDbLine
 10
-70.5262608999983
 20
11.83287463788747
 30
0.0
 11
-71.5262608999983
 21
11.83287463788747
 31
0.0
  0
LINE
  5
37B
330
21
100
AcDbEntity
  8
0
370
    -3
100
AcDbLine
 10
-71.5262608999983
 20
11.83287463788747
 30
0.0
 11
-71.5262608999983
 21
8.682437156767719
 31
0.0
  0
LINE
  5
37C
330
21
100
AcDbEntity
  8
0
370
    -3
100
AcDbLine
 10
-71.5262608999983
 20
8.682437156767719
 30
0.0
 11
-67.5262608999983
 21
8.682437156767719
 31
0.0
  0
LINE
  5
37D
330
21
100
AcDbEntity
  8
0
370
    -3
100
AcDbLine
 10
-67.5262608999983
 20
8.682437156767719
 30
0.0
 11
-67.5262608999983
 21
11.83287463788747
 31
0.0
  0
LINE
  5
37E
330
21
100
AcDbEntity
  8
0
370
    -3
100
AcDbLine
 10
-67.5262608999983
 20
11.83287463788747
 30
0.0
 11
-68.5262608999983
 21
11.83287463788747
 31
0.0
  0
ARC
  5
37F
330
21
100
AcDbEntity
  8
0
370
    -3
100
AcDbCircle
 10
-69.5262608999983
 20
11.83287463788747
 30
0.0
 40
1.0
100
AcDbArc
 50
0.0
 51
180.0
  0
LINE
  5
380
330
21
100
AcDbEntity
  8
0
370
    -3
100
AcDbLine
 10
-70.52627806301825
 20
11.74441017677782
 30
0.0
 11
-71.5262608999983
 21
8.682437156767719
 31
0.0
  0
LINE
  5
381
330
21
100
AcDbEntity
  8
0
370
    -3
100
AcDbLine
 10
-70.5262608999983
 20
11.7444578147979
 30
0.0
 11
-70.5262608999983
 21
11.83287463788747
 31
0.0
  0
LINE
  5
382
330
21
100
AcDbEntity
  8
0
370
    -3
100
AcDbLine
 10
-70.5262608999983
 20
11.7444578147979
 30
0.0
 11
-70.52627806301825
 21
11.74441017677782
 31
0.0
  0
LINE
  5
383
330
21
100
AcDbEntity
  8
0
370
    -3
100
AcDbLine
 10
-68.52624373698927
 20
11.74441017677782
 30
0.0
 11
-68.5262608999983
 21
11.7444578147979
 31
0.0
  0
LINE
  5
384
330
21
100
AcDbEntity
  8
0
370
    -3
100
AcDbLine
 10
-68.5262608999983
 20
11.83287463788747
 30
0.0
 11
-68.5262608999983
 21
11.7444578147979
 31
0.0
  0
LINE
  5
385
330
21
100
AcDbEntity
  8
0
370
    -3
100
AcDbLine
 10
-67.5262608999983
 20
8.682437156767719
 30
0.0
 11
-68.52624373698927
 21
11.74441017677782
 31
0.0
  0
LINE
  5
386
330
21
100
AcDbEntity
  8
0
370
    -3
100
AcDbLine
 10
-70.52627806301825
 20
11.74441017677782
 30
0.0
 11
-68.52624373698927
 21
11.74441017677782
 31
0.0
  0
LINE
  5
387
330
21
100
AcDbEntity
  8
0
370
    -3
100
AcDbLine
 10
-70.5262608999983
 20
11.7484756398776
 30
0.0
 11
-68.5262608999983
 21
11.7484756398776
 31
0.0
  0
LINE
  5
388
330
21
100
AcDbEntity
  8
0
370
    -3
100
AcDbLine
 10
-67.0262608999983
 20
2.752824784067798
 30
0.0
 11
-72.0262608999983
 21
2.752824784067798
 31
0.0
  0
LINE
  5
389
330
21
100
AcDbEntity
  8
0
370
    -3
100
AcDbLine
 10
-70.5262608999983
 20
6.065183085640456
 30
0.0
 11
-71.5262608999983
 21
6.065183085640456
 31
0.0
  0
LINE
  5
38A
330
21
100
AcDbEntity
  8
0
370
    -3
100
AcDbLine
 10
-71.5262608999983
 20
6.065183085640456
 30
0.0
 11
-71.5262608999983
 21
3.184871519055832
 31
0.0
  0
LINE
  5
38B
330
21
100
AcDbEntity
  8
0
370
    -3
100
AcDbLine
 10
-71.5262608999983
 20
3.184871519055832
 30
0.0
 11
-67.5262608999983
 21
3.184871519055832
 31
0.0
  0
LINE
  5
38C
330
21
100
AcDbEntity
  8
0
370
    -3
100
AcDbLine
 10
-67.5262608999983
 20
3.184871519055832
 30
0.0
 11
-67.5262608999983
 21
6.065183085640456
 31
0.0
  0
LINE
  5
38D
330
21
100
AcDbEntity
  8
0
370
    -3
100
AcDbLine
 10
-67.5262608999983
 20
6.065183085640456
 30
0.0
 11
-68.5262608999983
 21
6.065183085640456
 31
0.0
  0
ARC
  5
38E
330
21
100
AcDbEntity
  8
0
370
    -3
100
AcDbCircle
 10
-69.5262608999983
 20
6.065183085640456
 30
0.0
 40
1.0
100
AcDbArc
 50
0.0
 51
180.0
  0
LINE
  5
38F
330
21
100
AcDbEntity
  8
0
370
    -3
100
AcDbLine
 10
-71.5262608999983
 20
3.184871519055832
 30
0.0
 11
-70.58608995982831
 21
6.065183085640456
 31
0.0
  0
LINE
  5
390
330
21
100
AcDbEntity
  8
0
370
    -3
100
AcDbLine
 10
-68.46643184017012
 20
6.065183085640456
 30
0.0
 11
-67.5262608999983
 21
3.184871519055832
 31
0.0
  0
LINE
  5
391
330
21
100
AcDbEntity
  8
0
370
    -3
100
AcDbLine
 10
-70.50931931106061
 20
6.248475639877597
 30
0.0
 11
-68.543202488936
 21
6.248475639877597
 31
0.0
  0
LINE
  5
392
330
21
100
AcDbEntity
  8
0
370
    -3
100
AcDbLine
 10
-72.0262608999983
 20
2.752824784067798
 30
0.0
 11
-72.0262608999983
 21
8.252824784067798
 31
0.0
  0
LINE
  5
393
330
21
100
AcDbEntity
  8
0
370
    -3
100
AcDbLine
 10
-72.0262608999983
 20
8.252824784067798
 30
0.0
 11
-72.0262608999983
 21
16.2528247840678
 31
0.0
  0
LINE
  5
394
330
21
100
AcDbEntity
  8
0
370
    -3
100
AcDbLine
 10
-72.0262608999983
 20
16.2528247840678
 30
0.0
 11
-72.0262608999983
 21
19.7528247840678
 31
0.0
  0
LINE
  5
395
330
21
100
AcDbEntity
  8
0
370
    -3
100
AcDbLine
 10
-72.0262608999983
 20
19.7528247840678
 30
0.0
 11
-72.0262608999983
 21
23.7528247840678
 31
0.0
  0
LINE
  5
396
330
21
100
AcDbEntity
  8
0
370
    -3
100
AcDbLine
 10
-72.0262608999983
 20
19.7528247840678
 30
0.0
 11
-77.0262608999983
 21
19.7528247840678
 31
0.0
  0
LINE
  5
397
330
21
100
AcDbEntity
  8
0
370
    -3
100
AcDbLine
 10
-77.0262608999983
 20
19.7528247840678
 30
0.0
 11
-77.0262608999983
 21
16.2528247840678
 31
0.0
  0
LINE
  5
398
330
21
100
AcDbEntity
  8
0
370
    -3
100
AcDbLine
 10
-77.0262608999983
 20
16.2528247840678
 30
0.0
 11
-77.0262608999983
 21
8.252824784067798
 31
0.0
  0
LINE
  5
399
330
21
100
AcDbEntity
  8
0
370
    -3
100
AcDbLine
 10
-77.0262608999983
 20
8.252824784067798
 30
0.0
 11
-77.0262608999983
 21
2.752824784067798
 31
0.0
  0
LINE
  5
39A
330
21
100
AcDbEntity
  8
0
370
    -3
100
AcDbLine
 10
-77.0262608999983
 20
23.7528247840678
 30
0.0
 11
-77.0262608999983
 21
19.7528247840678
 31
0.0
  0
LINE
  5
39B
330
21
100
AcDbEntity
  8
0
370
    -3
100
AcDbLine
 10
-72.0262608999983
 20
23.7528247840678
 30
0.0
 11
-77.0262608999983
 21
23.7528247840678
 31
0.0
  0
LINE
  5
39C
330
21
100
AcDbEntity
  8
0
370
    -3
100
AcDbLine
 10
-72.0262608999983
 20
16.2528247840678
 30
0.0
 11
-77.0262608999983
 21
16.2528247840678
 31
0.0
  0
LINE
  5
39D
330
21
100
AcDbEntity
  8
0
370
    -3
100
AcDbLine
 10
-72.0262608999983
 20
8.252824784067798
 30
0.0
 11
-77.0262608999983
 21
8.252824784067798
 31
0.0
  0
LINE
  5
39E
330
21
100
AcDbEntity
  8
0
370
    -3
100
AcDbLine
 10
-76.2762608999983
 20
15.53682464444773
 30
0.0
 11
-72.7762608999983
 21
15.53682464444773
 31
0.0
  0
LINE
  5
39F
330
21
100
AcDbEntity
  8
0
370
    -3
100
AcDbLine
 10
-76.2762608999983
 20
13.7468242953978
 30
0.0
 11
-76.2762608999983
 21
15.53682464444773
 31
0.0
  0
LINE
  5
3A0
330
21
100
AcDbEntity
  8
0
370
    -3
100
AcDbLine
 10
-72.7762608999983
 20
13.7468242953978
 30
0.0
 11
-76.2762608999983
 21
13.7468242953978
 31
0.0
  0
LINE
  5
3A1
330
21
100
AcDbEntity
  8
0
370
    -3
100
AcDbLine
 10
-72.7762608999983
 20
15.53682464444773
 30
0.0
 11
-72.7762608999983
 21
13.7468242953978
 31
0.0
  0
LINE
  5
3A2
330
21
100
AcDbEntity
  8
0
370
    -3
100
AcDbLine
 10
-75.5262608999983
 20
11.83287463788747
 30
0.0
 11
-76.5262608999983
 21
11.83287463788747
 31
0.0
  0
LINE
  5
3A3
330
21
100
AcDbEntity
  8
0
370
    -3
100
AcDbLine
 10
-76.5262608999983
 20
11.83287463788747
 30
0.0
 11
-76.5262608999983
 21
8.682437156767719
 31
0.0
  0
LINE
  5
3A4
330
21
100
AcDbEntity
  8
0
370
    -3
100
AcDbLine
 10
-76.5262608999983
 20
8.682437156767719
 30
0.0
 11
-72.5262608999983
 21
8.682437156767719
 31
0.0
  0
LINE
  5
3A5
330
21
100
AcDbEntity
  8
0
370
    -3
100
AcDbLine
 10
-72.5262608999983
 20
8.682437156767719
 30
0.0
 11
-72.5262608999983
 21
11.83287463788747
 31
0.0
  0
LINE
  5
3A6
330
21
100
AcDbEntity
  8
0
370
    -3
100
AcDbLine
 10
-72.5262608999983
 20
11.83287463788747
 30
0.0
 11
-73.5262608999983
 21
11.83287463788747
 31
0.0
  0
ARC
  5
3A7
330
21
100
AcDbEntity
  8
0
370
    -3
100
AcDbCircle
 10
-74.5262608999983
 20
11.83287463788747
 30
0.0
 40
1.0
100
AcDbArc
 50
0.0
 51
180.0
  0
LINE
  5
3A8
330
21
100
AcDbEntity
  8
0
370
    -3
100
AcDbLine
 10
-73.52624373698927
 20
11.74441017677782
 30
0.0
 11
-73.5262608999983
 21
11.7444578147979
 31
0.0
  0
LINE
  5
3A9
330
21
100
AcDbEntity
  8
0
370
    -3
100
AcDbLine
 10
-73.5262608999983
 20
11.83287463788747
 30
0.0
 11
-73.5262608999983
 21
11.7444578147979
 31
0.0
  0
LINE
  5
3AA
330
21
100
AcDbEntity
  8
0
370
    -3
100
AcDbLine
 10
-72.5262608999983
 20
8.682437156767719
 30
0.0
 11
-73.52624373698927
 21
11.74441017677782
 31
0.0
  0
LINE
  5
3AB
330
21
100
AcDbEntity
  8
0
370
    -3
100
AcDbLine
 10
-75.52627806301825
 20
11.74441017677782
 30
0.0
 11
-76.5262608999983
 21
8.682437156767719
 31
0.0
  0
LINE
  5
3AC
330
21
100
AcDbEntity
  8
0
370
    -3
100
AcDbLine
 10
-75.5262608999983
 20
11.7444578147979
 30
0.0
 11
-75.5262608999983
 21
11.83287463788747
 31
0.0
  0
LINE
  5
3AD
330
21
100
AcDbEntity
  8
0
370
    -3
100
AcDbLine
 10
-75.5262608999983
 20
11.7444578147979
 30
0.0
 11
-75.52627806301825
 21
11.74441017677782
 31
0.0
  0
LINE
  5
3AE
330
21
100
AcDbEntity
  8
0
370
    -3
100
AcDbLine
 10
-75.52627806301825
 20
11.74441017677782
 30
0.0
 11
-73.52624373698927
 21
11.74441017677782
 31
0.0
  0
LINE
  5
3AF
330
21
100
AcDbEntity
  8
0
370
    -3
100
AcDbLine
 10
-75.5262608999983
 20
11.7484756398776
 30
0.0
 11
-73.5262608999983
 21
11.7484756398776
 31
0.0
  0
LINE
  5
3B0
330
21
100
AcDbEntity
  8
0
370
    -3
100
AcDbLine
 10
-72.0262608999983
 20
2.752824784067798
 30
0.0
 11
-77.0262608999983
 21
2.752824784067798
 31
0.0
  0
LINE
  5
3B1
330
21
100
AcDbEntity
  8
0
370
    -3
100
AcDbLine
 10
-75.5262608999983
 20
6.065183085640456
 30
0.0
 11
-76.5262608999983
 21
6.065183085640456
 31
0.0
  0
LINE
  5
3B2
330
21
100
AcDbEntity
  8
0
370
    -3
100
AcDbLine
 10
-76.5262608999983
 20
6.065183085640456
 30
0.0
 11
-76.5262608999983
 21
3.184871519055832
 31
0.0
  0
LINE
  5
3B3
330
21
100
AcDbEntity
  8
0
370
    -3
100
AcDbLine
 10
-76.5262608999983
 20
3.184871519055832
 30
0.0
 11
-72.5262608999983
 21
3.184871519055832
 31
0.0
  0
LINE
  5
3B4
330
21
100
AcDbEntity
  8
0
370
    -3
100
AcDbLine
 10
-72.5262608999983
 20
3.184871519055832
 30
0.0
 11
-72.5262608999983
 21
6.065183085640456
 31
0.0
  0
LINE
  5
3B5
330
21
100
AcDbEntity
  8
0
370
    -3
100
AcDbLine
 10
-72.5262608999983
 20
6.065183085640456
 30
0.0
 11
-73.5262608999983
 21
6.065183085640456
 31
0.0
  0
ARC
  5
3B6
330
21
100
AcDbEntity
  8
0
370
    -3
100
AcDbCircle
 10
-74.5262608999983
 20
6.065183085640456
 30
0.0
 40
1.0
100
AcDbArc
 50
0.0
 51
180.0
  0
LINE
  5
3B7
330
21
100
AcDbEntity
  8
0
370
    -3
100
AcDbLine
 10
-73.46643184017012
 20
6.065183085640456
 30
0.0
 11
-72.5262608999983
 21
3.184871519055832
 31
0.0
  0
LINE
  5
3B8
330
21
100
AcDbEntity
  8
0
370
    -3
100
AcDbLine
 10
-76.5262608999983
 20
3.184871519055832
 30
0.0
 11
-75.58608995982831
 21
6.065183085640456
 31
0.0
  0
LINE
  5
3B9
330
21
100
AcDbEntity
  8
0
370
    -3
100
AcDbLine
 10
-75.50931931106061
 20
6.248475639877597
 30
0.0
 11
-73.543202488936
 21
6.248475639877597
 31
0.0
  0
LINE
  5
3BA
330
21
100
AcDbEntity
  8
0
370
    -3
100
AcDbLine
 10
-62.02626089999831
 20
23.7528247840678
 30
0.0
 11
-61.02626089999831
 21
23.7528247840678
 31
0.0
  0
LINE
  5
3BB
330
21
100
AcDbEntity
  8
0
370
    -3
100
AcDbLine
 10
-62.02626089999831
 20
19.7528247840678
 30
0.0
 11
-62.02626089999831
 21
23.7528247840678
 31
0.0
  0
LINE
  5
3BC
330
21
100
AcDbEntity
  8
0
370
    -3
100
AcDbLine
 10
-62.02626089999831
 20
16.2528247840678
 30
0.0
 11
-62.02626089999831
 21
19.7528247840678
 31
0.0
  0
LINE
  5
3BD
330
21
100
AcDbEntity
  8
0
370
    -3
100
AcDbLine
 10
-62.02626089999831
 20
8.252824784067798
 30
0.0
 11
-62.02626089999831
 21
16.2528247840678
 31
0.0
  0
LINE
  5
3BE
330
21
100
AcDbEntity
  8
0
370
    -3
100
AcDbLine
 10
-62.02626089999831
 20
2.752824784067798
 30
0.0
 11
-62.02626089999831
 21
8.252824784067798
 31
0.0
  0
LINE
  5
3BF
330
21
100
AcDbEntity
  8
0
370
    -3
100
AcDbLine
 10
-61.02626089999831
 20
2.752824784067798
 30
0.0
 11
-61.02626089999831
 21
8.252824784067798
 31
0.0
  0
LINE
  5
3C0
330
21
100
AcDbEntity
  8
0
370
    -3
100
AcDbLine
 10
-61.02626089999831
 20
8.252824784067798
 30
0.0
 11
-61.02626089999831
 21
16.2528247840678
 31
0.0
  0
LINE
  5
3C1
330
21
100
AcDbEntity
  8
0
370
    -3
100
AcDbLine
 10
-61.02626089999831
 20
16.2528247840678
 30
0.0
 11
-61.02626089999831
 21
19.7528247840678
 31
0.0
  0
LINE
  5
3C2
330
21
100
AcDbEntity
  8
0
370
    -3
100
AcDbLine
 10
-61.02626089999831
 20
19.7528247840678
 30
0.0
 11
-61.02626089999831
 21
23.7528247840678
 31
0.0
  0
LINE
  5
3C3
330
21
100
AcDbEntity
  8
0
370
    -3
100
AcDbLine
 10
-62.02626089999831
 20
19.7528247840678
 30
0.0
 11
-61.02626089999831
 21
19.7528247840678
 31
0.0
  0
LINE
  5
3C4
330
21
100
AcDbEntity
  8
0
370
    -3
100
AcDbLine
 10
-62.02626089999831
 20
8.252824784067798
 30
0.0
 11
-61.02626089999831
 21
8.252824784067798
 31
0.0
  0
LINE
  5
3C5
330
21
100
AcDbEntity
  8
0
370
    -3
100
AcDbLine
 10
-62.02626089999831
 20
16.2528247840678
 30
0.0
 11
-61.02626089999831
 21
16.2528247840678
 31
0.0
  0
LINE
  5
3C6
330
21
100
AcDbEntity
  8
0
370
    -3
100
AcDbLine
 10
-62.02626089999831
 20
2.752824784067798
 30
0.0
 11
-61.02626089999831
 21
2.752824784067798
 31
0.0
  0
CIRCLE
  5
3C7
330
21
100
AcDbEntity
  8
0
370
    -3
100
AcDbCircle
 10
-65.27246329999798
 20
57.2470453040678
 30
0.0
 40
1.5
  0
ARC
  5
3C8
330
21
100
AcDbEntity
  8
0
370
    -3
100
AcDbCircle
 10
-65.27506171999812
 20
57.2470453040678
 30
0.0
 40
1.5
100
AcDbArc
 50
89.95879896614849
 51
270.041658348014
  0
ARC
  5
3C9
330
21
100
AcDbEntity
  8
0
370
    -3
100
AcDbCircle
 10
-60.27126171999771
 20
57.2470453040678
 30
0.0
 40
1.5
100
AcDbArc
 50
89.94474549625045
 51
270.0549489995242
  0
CIRCLE
  5
3CA
330
21
100
AcDbEntity
  8
0
370
    -3
100
AcDbCircle
 10
-60.26866329999939
 20
57.2470453040678
 30
0.0
 40
1.5
  0
CIRCLE
  5
3CB
330
21
100
AcDbEntity
  8
0
370
    -3
100
AcDbCircle
 10
-55.26486329999898
 20
57.2470453040678
 30
0.0
 40
1.5
  0
ARC
  5
3CC
330
21
100
AcDbEntity
  8
0
370
    -3
100
AcDbCircle
 10
-55.26746171999912
 20
57.2470453040678
 30
0.0
 40
1.5
100
AcDbArc
 50
89.95041010604841
 51
270.0495918633708
  0
ARC
  5
3CD
330
21
100
AcDbEntity
  8
0
370
    -3
100
AcDbCircle
 10
-75.28266171999894
 20
57.2470453040678
 30
0.0
 40
1.5
100
AcDbArc
 50
89.9437039907095
 51
270.0559339720579
  0
CIRCLE
  5
3CE
330
21
100
AcDbEntity
  8
0
370
    -3
100
AcDbCircle
 10
-75.2800632999988
 20
57.2470453040678
 30
0.0
 40
1.5
  0
CIRCLE
  5
3CF
330
21
100
AcDbEntity
  8
0
370
    -3
100
AcDbCircle
 10
-70.27626329999839
 20
57.2470453040678
 30
0.0
 40
1.5
  0
ARC
  5
3D0
330
21
100
AcDbEntity
  8
0
370
    -3
100
AcDbCircle
 10
-70.27886171999853
 20
57.2470453040678
 30
0.0
 40
1.5
100
AcDbArc
 50
89.94450812142772
 51
270.0551734901256
  0
LINE
  5
3D1
330
21
100
AcDbEntity
  8
0
370
    -3
100
AcDbLine
 10
-35.99668999999813
 20
60.94704606406776
 30
0.0
 11
-35.76808999999776
 21
60.94704606406776
 31
0.0
  0
LINE
  5
3D2
330
21
100
AcDbEntity
  8
0
370
    -3
100
AcDbLine
 10
-46.71548999999868
 20
60.94704606406776
 30
0.0
 11
-46.48688999999831
 21
60.94704606406776
 31
0.0
  0
LINE
  5
3D3
330
21
100
AcDbEntity
  8
0
370
    -3
100
AcDbLine
 10
-46.48688999999831
 20
60.94704606406776
 30
0.0
 11
-35.99668999999813
 21
60.94704606406776
 31
0.0
  0
LINE
  5
3D4
330
21
100
AcDbEntity
  8
0
370
    -3
100
AcDbLine
 10
-46.48688999999831
 20
61.94704606406776
 30
0.0
 11
-35.99668999999813
 21
61.94704606406776
 31
0.0
  0
LINE
  5
3D5
330
21
100
AcDbEntity
  8
0
370
    -3
100
AcDbLine
 10
-35.99668999999813
 20
61.94704606406776
 30
0.0
 11
-35.99668999999813
 21
60.94704606406776
 31
0.0
  0
LINE
  5
3D6
330
21
100
AcDbEntity
  8
0
370
    -3
100
AcDbLine
 10
-46.48688999999831
 20
61.94704606406776
 30
0.0
 11
-46.48688999999831
 21
60.94704606406776
 31
0.0
  0
LINE
  5
3D7
330
21
100
AcDbEntity
  8
0
370
    -3
100
AcDbLine
 10
-46.71548999999868
 20
61.94704606406776
 30
0.0
 11
-46.48688999999831
 21
61.94704606406776
 31
0.0
  0
LINE
  5
3D8
330
21
100
AcDbEntity
  8
0
370
    -3
100
AcDbLine
 10
-46.71548999999868
 20
61.94704606406776
 30
0.0
 11
-46.71548999999868
 21
60.94704606406776
 31
0.0
  0
LINE
  5
3D9
330
21
100
AcDbEntity
  8
0
370
    -3
100
AcDbLine
 10
-35.99668999999813
 20
61.94704606406776
 30
0.0
 11
-35.76808999999776
 21
61.94704606406776
 31
0.0
  0
LINE
  5
3DA
330
21
100
AcDbEntity
  8
0
370
    -3
100
AcDbLine
 10
-35.76808999999776
 20
61.94704606406776
 30
0.0
 11
-35.76808999999776
 21
60.94704606406776
 31
0.0
  0
LINE
  5
3DB
330
21
100
AcDbEntity
  8
0
370
    -3
100
AcDbLine
 10
-47.83308999999826
 20
62.07762310619137
 30
0.0
 11
-47.83308999999826
 21
60.99651936894998
 31
0.0
  0
CIRCLE
  5
3DC
330
21
100
AcDbEntity
  8
0
370
    -3
100
AcDbCircle
 10
1.883506249869242
 20
58.74204608406808
 30
0.0000000000000039
 40
1.55
210
-3.346772206639759E-16
220
5.555610790443091E-17
230
-1.0
  0
ARC
  5
3DD
330
21
100
AcDbEntity
  8
0
370
    -3
100
AcDbCircle
 10
-1.883506249869242
 20
58.74204608406808
 30
0.0
 40
1.75
100
AcDbArc
 50
0.0
 51
270.0
  0
ARC
  5
3DE
330
21
100
AcDbEntity
  8
0
370
    -3
100
AcDbCircle
 10
-1.883506249869242
 20
58.74204608406808
 30
0.0
 40
1.75
100
AcDbArc
 50
270.0
 51
0.0
  0
CIRCLE
  5
3DF
330
21
100
AcDbEntity
  8
0
370
    -3
100
AcDbCircle
 10
-9.952893750130897
 20
58.74204608406808
 30
0.0
 40
1.55
210
-3.346772206639759E-16
220
5.555610790443091E-17
230
-1.0
  0
ARC
  5
3E0
330
21
100
AcDbEntity
  8
0
370
    -3
100
AcDbCircle
 10
9.952893750130897
 20
58.74204608406808
 30
0.0
 40
1.75
100
AcDbArc
 50
0.0
 51
270.0
  0
ARC
  5
3E1
330
21
100
AcDbEntity
  8
0
370
    -3
100
AcDbCircle
 10
9.952893750130897
 20
58.74204608406808
 30
0.0
 40
1.75
100
AcDbArc
 50
270.0
 51
0.0
  0
CIRCLE
  5
3E2
330
21
100
AcDbEntity
  8
0
370
    -3
100
AcDbCircle
 10
-21.66229375013063
 20
58.74204608406808
 30
-0.0000000000000039
 40
1.55
210
-3.346772206639759E-16
220
5.555610790443091E-17
230
-1.0
  0
ARC
  5
3E3
330
21
100
AcDbEntity
  8
0
370
    -3
100
AcDbCircle
 10
21.66229375013063
 20
58.74204608406808
 30
0.0
 40
1.75
100
AcDbArc
 50
0.0
 51
270.0
  0
ARC
  5
3E4
330
21
100
AcDbEntity
  8
0
370
    -3
100
AcDbCircle
 10
21.66229375013063
 20
58.74204608406808
 30
0.0
 40
1.75
100
AcDbArc
 50
270.0
 51
0.0
  0
LINE
  5
3E5
330
21
100
AcDbEntity
  8
0
370
    -3
100
AcDbLine
 10
-34.78756382542633
 20
62.24704546406792
 30
0.0
 11
-47.6960161745701
 21
62.24704546406792
 31
0.0
  0
LINE
  5
3E6
330
21
100
AcDbEntity
  8
0
370
    -3
100
AcDbLine
 10
-82.50000000000364
 20
75.30000000000018
 30
0.0
 11
-82.50000000000364
 21
75.0
 31
0.0
  0
LINE
  5
3E7
330
21
100
AcDbEntity
  8
0
370
    -3
100
AcDbLine
 10
82.49999999999636
 20
75.30000000000018
 30
0.0
 11
-82.50000000000364
 21
75.30000000000018
 31
0.0
  0
LINE
  5
3E8
330
21
100
AcDbEntity
  8
0
370
    -3
100
AcDbLine
 10
-82.50000000000364
 20
75.0
 30
0.0
 11
82.49999999999636
 21
75.0
 31
0.0
  0
LINE
  5
3E9
330
21
100
AcDbEntity
  8
0
370
    -3
100
AcDbLine
 10
82.49999999999636
 20
75.30000000000018
 30
0.0
 11
82.49999999999636
 21
75.0
 31
0.0
  0
LINE
  5
3EA
330
21
100
AcDbEntity
  8
0
370
    -3
100
AcDbLine
 10
-82.50000000000364
 20
30.0
 30
0.0
 11
82.49999999999636
 21
30.0
 31
0.0
  0
LINE
  5
3EB
330
21
100
AcDbEntity
  8
0
370
    -3
100
AcDbLine
 10
-82.50000000000364
 20
31.0
 30
0.0
 11
-82.50000000000364
 21
30.40000000000009
 31
0.0
  0
LINE
  5
3EC
330
21
100
AcDbEntity
  8
0
370
    -3
100
AcDbLine
 10
-82.50000000000364
 20
30.40000000000009
 30
0.0
 11
-82.50000000000364
 21
30.39998000000014
 31
0.0
  0
LINE
  5
3ED
330
21
100
AcDbEntity
  8
0
370
    -3
100
AcDbLine
 10
-82.50000000000364
 20
30.39998000000014
 30
0.0
 11
-82.50000000000364
 21
30.0
 31
0.0
  0
LINE
  5
3EE
330
21
100
AcDbEntity
  8
0
370
    -3
100
AcDbLine
 10
-82.50000000000364
 20
31.0
 30
0.0
 11
82.49999999999636
 21
31.0
 31
0.0
  0
LINE
  5
3EF
330
21
100
AcDbEntity
  8
0
370
    -3
100
AcDbLine
 10
82.49999999999636
 20
30.0
 30
0.0
 11
82.49999999999636
 21
31.0
 31
0.0
  0
LINE
  5
3F0
330
21
100
AcDbEntity
  8
0
370
    -3
100
AcDbLine
 10
82.49999999999636
 20
31.0
 30
0.0
 11
82.49999999999636
 21
31.30000000000018
 31
0.0
  0
LINE
  5
3F1
330
21
100
AcDbEntity
  8
0
370
    -3
100
AcDbLine
 10
82.49999999999636
 20
53.15999999999804
 30
0.0
 11
82.49999999999636
 21
59.15999999999804
 31
0.0
  0
LINE
  5
3F2
330
21
100
AcDbEntity
  8
0
370
    -3
100
AcDbLine
 10
82.49999999999636
 20
73.69999999999982
 30
0.0
 11
82.49999999999636
 21
74.0
 31
0.0
  0
LINE
  5
3F3
330
21
100
AcDbEntity
  8
0
370
    -3
100
AcDbLine
 10
82.49999999999636
 20
74.0
 30
0.0
 11
82.49999999999636
 21
75.0
 31
0.0
  0
LINE
  5
3F4
330
21
100
AcDbEntity
  8
0
370
    -3
100
AcDbLine
 10
82.49999999999636
 20
29.70000000000027
 30
0.0
 11
82.49999999999636
 21
30.0
 31
0.0
  0
LINE
  5
3F5
330
21
100
AcDbEntity
  8
0
370
    -3
100
AcDbLine
 10
-82.50000000000364
 20
29.69999999999982
 30
0.0
 11
82.49999999999636
 21
29.70000000000027
 31
0.0
  0
LINE
  5
3F6
330
21
100
AcDbEntity
  8
0
370
    -3
100
AcDbLine
 10
-82.50000000000364
 20
29.69999999999982
 30
0.0
 11
-82.50000000000364
 21
30.0
 31
0.0
  0
LINE
  5
3F7
330
21
100
AcDbEntity
  8
0
370
    -3
100
AcDbLine
 10
-82.50000000000364
 20
73.5
 30
0.0
 11
82.49999999999636
 21
73.5
 31
0.0
  0
LINE
  5
3F8
330
21
100
AcDbEntity
  8
0
370
    -3
100
AcDbLine
 10
-82.50000000000364
 20
74.0
 30
0.0
 11
82.49999999999636
 21
74.0
 31
0.0
  0
LINE
  5
3F9
330
21
100
AcDbEntity
  8
0
370
    -3
100
AcDbLine
 10
-82.50000000000364
 20
31.5
 30
0.0
 11
82.49999999999636
 21
31.5
 31
0.0
  0
LINE
  5
3FA
330
21
100
AcDbEntity
  8
0
370
    -3
100
AcDbLine
 10
-82.50000000000364
 20
75.0
 30
0.0
 11
-82.50000000000364
 21
74.60001999999986
 31
0.0
  0
LINE
  5
3FB
330
21
100
AcDbEntity
  8
0
370
    -3
100
AcDbLine
 10
-82.50000000000364
 20
74.60001999999986
 30
0.0
 11
-82.50000000000364
 21
74.59999999999991
 31
0.0
  0
LINE
  5
3FC
330
21
100
AcDbEntity
  8
0
370
    -3
100
AcDbLine
 10
-82.50000000000364
 20
74.59999999999991
 30
0.0
 11
-82.50000000000364
 21
74.0
 31
0.0
  0
LINE
  5
3FD
330
21
100
AcDbEntity
  8
0
370
    -3
100
AcDbLine
 10
-82.50000000000364
 20
73.0
 30
0.0
 11
-82.50000000000364
 21
32.0
 31
0.0
  0
ARC
  5
3FE
330
21
100
AcDbEntity
  8
0
370
    -3
100
AcDbCircle
 10
-35.4918168638651
 20
61.53704606406791
 30
0.0
 40
1.0
100
AcDbArc
 50
270.0
 51
0.0014423352898539
  0
ARC
  5
3FF
330
21
100
AcDbEntity
  8
0
370
    -3
100
AcDbCircle
 10
-35.4918168638651
 20
61.53709641107298
 30
0.0
 40
1.0
100
AcDbArc
 50
359.9985576647102
 51
90.0
  0
ARC
  5
400
330
21
100
AcDbEntity
  8
0
370
    -3
100
AcDbCircle
 10
-46.99176313613134
 20
61.53704606406791
 30
0.0
 40
1.0
100
AcDbArc
 50
179.9985576647101
 51
270.0
  0
CIRCLE
  5
401
330
21
100
AcDbEntity
  8
0
370
    -3
100
AcDbCircle
 10
55.26746171999912
 20
57.33704530406794
 30
0.0000000000000059
 40
1.6
210
-1.126366602713799E-16
220
-5.674209786692087E-18
230
-1.0
  0
CIRCLE
  5
402
330
21
100
AcDbEntity
  8
0
370
    -3
100
AcDbCircle
 10
60.27126171999771
 20
57.33704530406794
 30
0.0000000000000064
 40
1.6
210
-1.126366602713799E-16
220
-5.674209786692087E-18
230
-1.0
  0
CIRCLE
  5
403
330
21
100
AcDbEntity
  8
0
370
    -3
100
AcDbCircle
 10
65.27506171999812
 20
57.33704530406794
 30
0.000000000000007
 40
1.6
210
-1.126366602713799E-16
220
-5.674209786692087E-18
230
-1.0
  0
CIRCLE
  5
404
330
21
100
AcDbEntity
  8
0
370
    -3
100
AcDbCircle
 10
70.27886171999853
 20
57.33704530406794
 30
0.0000000000000075
 40
1.6
210
-1.126366602713799E-16
220
-5.674209786692087E-18
230
-1.0
  0
CIRCLE
  5
405
330
21
100
AcDbEntity
  8
0
370
    -3
100
AcDbCircle
 10
75.28266171999894
 20
57.33704530406794
 30
0.0000000000000081
 40
1.6
210
-1.126366602713799E-16
220
-5.674209786692087E-18
230
-1.0
  0
CIRCLE
  5
406
330
21
100
AcDbEntity
  8
0
370
    -3
100
AcDbCircle
 10
1.883506249871061
 20
58.83204608406913
 30
-0.0000000000000002
 40
2.0
210
-1.126366602713799E-16
220
-5.674209786692099E-18
230
-1.0
  0
CIRCLE
  5
407
330
21
100
AcDbEntity
  8
0
370
    -3
100
AcDbCircle
 10
-9.952893750129078
 20
58.83204608407004
 30
-0.0000000000000015
 40
2.0
210
-1.126366602713799E-16
220
-5.674209786692099E-18
230
-1.0
  0
CIRCLE
  5
408
330
21
100
AcDbEntity
  8
0
370
    -3
100
AcDbCircle
 10
-21.65948969598685
 20
58.83204608406913
 30
-0.0000000000000028
 40
2.0
210
-1.126366602713799E-16
220
-5.674209786692099E-18
230
-1.0
  0
ARC
  5
409
330
21
100
AcDbEntity
  8
0
370
    -3
100
AcDbCircle
 10
-27.80891305772457
 20
53.33679454175899
 30
0.0
 40
1.0
100
AcDbArc
 50
180.0
 51
270.0
  0
LINE
  5
40A
330
21
100
AcDbEntity
  8
0
370
    -3
100
AcDbLine
 10
-10.80886694227229
 20
52.33679454175899
 30
0.0
 11
-27.80891305772457
 21
52.33679454175899
 31
0.0
  0
ARC
  5
40B
330
21
100
AcDbEntity
  8
0
370
    -3
100
AcDbCircle
 10
-10.80886694227229
 20
53.33679454175899
 30
0.0
 40
1.0
100
AcDbArc
 50
270.0
 51
0.0
  0
LINE
  5
40C
330
21
100
AcDbEntity
  8
0
370
    -3
100
AcDbLine
 10
-9.808866942272289
 20
61.33704546406807
 30
0.0
 11
-9.808866942272289
 21
53.33679454175899
 31
0.0
  0
ARC
  5
40D
330
21
100
AcDbEntity
  8
0
370
    -3
100
AcDbCircle
 10
-10.80886694227229
 20
61.33704546406807
 30
0.0
 40
1.0
100
AcDbArc
 50
0.0
 51
90.0
  0
LINE
  5
40E
330
21
100
AcDbEntity
  8
0
370
    -3
100
AcDbLine
 10
-27.80891305772457
 20
62.33704546406807
 30
0.0
 11
-10.80886694227229
 21
62.33704546406807
 31
0.0
  0
ARC
  5
40F
330
21
100
AcDbEntity
  8
0
370
    -3
100
AcDbCircle
 10
-27.80891305772457
 20
61.33704546406807
 30
0.0
 40
0.9999999999999989
100
AcDbArc
 50
90.0
 51
180.0
  0
LINE
  5
410
330
21
100
AcDbEntity
  8
0
370
    -3
100
AcDbLine
 10
-28.80891305772457
 20
53.33679454175899
 30
0.0
 11
-28.80891305772457
 21
61.33704546406807
 31
0.0
  0
LINE
  5
411
330
21
100
AcDbEntity
  8
0
370
    -3
100
AcDbLine
 10
-35.4918168638651
 20
60.53704606406791
 30
0.0
 11
-46.99176313613134
 21
60.53704606406791
 31
0.0
  0
LINE
  5
412
330
21
100
AcDbEntity
  8
0
370
    -3
100
AcDbLine
 10
-46.99176313613134
 20
62.53709641107298
 30
0.0
 11
-35.4918168638651
 21
62.53709641107298
 31
0.0
  0
ARC
  5
413
330
21
100
AcDbEntity
  8
0
370
    -3
100
AcDbCircle
 10
-46.99176313613134
 20
61.53709641107298
 30
0.0
 40
1.0
100
AcDbArc
 50
90.0
 51
180.0014423352899
  0
LINE
  5
414
330
21
100
AcDbEntity
  8
0
370
    -3
100
AcDbLine
 10
-83.00000000000364
 20
74.8645751311119
 30
0.0
 11
-83.00000000000364
 21
74.59999999999991
 31
0.0
  0
LINE
  5
415
330
21
100
AcDbEntity
  8
0
370
    -3
100
AcDbLine
 10
-83.00000000000364
 20
74.59999999999991
 30
0.0
 11
-83.00000000000364
 21
73.80000000000018
 31
0.0
  0
LINE
  5
416
330
21
100
AcDbEntity
  8
0
370
    -3
100
AcDbLine
 10
-83.00000000000364
 20
73.80000000000018
 30
0.0
 11
-83.00000000000364
 21
73.53542486888773
 31
0.0
  0
LINE
  5
417
330
21
100
AcDbEntity
  8
0
370
    -3
100
AcDbLine
 10
-83.00000000000364
 20
51.66000000000076
 30
0.0
 11
-83.00000000000364
 21
45.66000000000167
 31
0.0
  0
LINE
  5
418
330
21
100
AcDbEntity
  8
0
370
    -3
100
AcDbLine
 10
-83.00000000000364
 20
31.46457513111227
 30
0.0
 11
-83.00000000000364
 21
31.20000000000027
 31
0.0
  0
LINE
  5
419
330
21
100
AcDbEntity
  8
0
370
    -3
100
AcDbLine
 10
-83.00000000000364
 20
31.20000000000027
 30
0.0
 11
-83.00000000000364
 21
30.40000000000009
 31
0.0
  0
LINE
  5
41A
330
21
100
AcDbEntity
  8
0
370
    -3
100
AcDbLine
 10
-83.00000000000364
 20
30.40000000000009
 30
0.0
 11
-83.00000000000364
 21
30.13542486888809
 31
0.0
  0
LINE
  5
41B
330
21
100
AcDbEntity
  8
0
370
    -3
100
AcDbLine
 10
-83.00000000000364
 20
29.69786796564404
 30
0.0
 11
-83.00000000000364
 21
29.0
 31
0.0
  0
LINE
  5
41C
330
21
100
AcDbEntity
  8
0
370
    -3
100
AcDbLine
 10
-83.00000000000364
 20
29.0
 30
0.0
 11
-83.00000000000364
 21
1.0
 31
0.0
  0
LINE
  5
41D
330
21
100
AcDbEntity
  8
0
370
    -3
100
AcDbLine
 10
-83.00000000000364
 20
1.0
 30
0.0
 11
-83.00000000000364
 21
0.5641101056398838
 31
0.0
  0
LINE
  5
41E
330
21
100
AcDbEntity
  8
0
370
    -3
100
AcDbLine
 10
-82.50000000000364
 20
0.0
 30
0.0
 11
-82.50000000000364
 21
1.0
 31
0.0
  0
LINE
  5
41F
330
21
100
AcDbEntity
  8
0
370
    -3
100
AcDbLine
 10
-82.50000000000364
 20
29.0
 30
0.0
 11
-82.50000000000364
 21
1.0
 31
0.0
  0
LINE
  5
420
330
21
100
AcDbEntity
  8
0
370
    -3
100
AcDbLine
 10
-82.50000000000364
 20
29.70000000000027
 30
0.0
 11
-82.50000000000364
 21
29.0
 31
0.0
  0
LINE
  5
421
330
21
100
AcDbEntity
  8
0
370
    -3
100
AcDbLine
 10
-82.50000000000364
 20
31.20000000000027
 30
0.0
 11
-82.50000000000364
 21
31.00001999999995
 31
0.0
  0
LINE
  5
422
330
21
100
AcDbEntity
  8
0
370
    -3
100
AcDbLine
 10
-82.50000000000364
 20
31.00001999999995
 30
0.0
 11
-82.50000000000364
 21
31.0
 31
0.0
  0
LINE
  5
423
330
21
100
AcDbEntity
  8
0
370
    -3
100
AcDbLine
 10
-82.50000000000364
 20
31.0
 30
0.0
 11
-82.50000000000364
 21
30.40000000000009
 31
0.0
  0
LINE
  5
424
330
21
100
AcDbEntity
  8
0
370
    -3
100
AcDbLine
 10
-82.50000000000364
 20
31.59999999999991
 30
0.0
 11
-82.50000000000364
 21
31.20000000000027
 31
0.0
  0
LINE
  5
425
330
21
100
AcDbEntity
  8
0
370
    -3
100
AcDbLine
 10
-82.50000000000364
 20
31.60000000000036
 30
0.0
 11
-82.50000000000364
 21
32.0
 31
0.0
  0
LINE
  5
426
330
21
100
AcDbEntity
  8
0
370
    -3
100
AcDbLine
 10
-82.50000000000364
 20
73.0
 30
0.0
 11
-82.50000000000364
 21
32.0
 31
0.0
  0
LINE
  5
427
330
21
100
AcDbEntity
  8
0
370
    -3
100
AcDbLine
 10
-82.50000000000364
 20
73.40000000000009
 30
0.0
 11
-82.50000000000364
 21
73.0
 31
0.0
  0
LINE
  5
428
330
21
100
AcDbEntity
  8
0
370
    -3
100
AcDbLine
 10
-82.50000000000364
 20
73.39999999999964
 30
0.0
 11
-82.50000000000364
 21
73.80000000000018
 31
0.0
  0
LINE
  5
429
330
21
100
AcDbEntity
  8
0
370
    -3
100
AcDbLine
 10
-82.50000000000364
 20
74.59999999999991
 30
0.0
 11
-82.50000000000364
 21
74.0
 31
0.0
  0
LINE
  5
42A
330
21
100
AcDbEntity
  8
0
370
    -3
100
AcDbLine
 10
-82.50000000000364
 20
74.0
 30
0.0
 11
-82.50000000000364
 21
73.99998000000005
 31
0.0
  0
LINE
  5
42B
330
21
100
AcDbEntity
  8
0
370
    -3
100
AcDbLine
 10
-82.50000000000364
 20
73.99998000000005
 30
0.0
 11
-82.50000000000364
 21
73.80000000000018
 31
0.0
  0
LINE
  5
42C
330
21
100
AcDbEntity
  8
0
370
    -3
100
AcDbLine
 10
-82.50000000000364
 20
73.80000000000018
 30
0.0
 11
-83.00000000000364
 21
73.80000000000018
 31
0.0
  0
LINE
  5
42D
330
21
100
AcDbEntity
  8
0
370
    -3
100
AcDbLine
 10
-82.50000000000364
 20
73.40000000000009
 30
0.0
 11
-83.00000000000364
 21
73.40000000000009
 31
0.0
  0
LINE
  5
42E
330
21
100
AcDbEntity
  8
0
370
    -3
100
AcDbLine
 10
-82.50000000000364
 20
31.60000000000036
 30
0.0
 11
-83.00000000000364
 21
31.60000000000036
 31
0.0
  0
LINE
  5
42F
330
21
100
AcDbEntity
  8
0
370
    -3
100
AcDbLine
 10
-82.50000000000364
 20
31.20000000000027
 30
0.0
 11
-83.00000000000364
 21
31.20000000000027
 31
0.0
  0
LINE
  5
430
330
21
100
AcDbEntity
  8
0
370
    -3
100
AcDbLine
 10
-82.50000000000364
 20
30.40000000000009
 30
0.0
 11
-83.00000000000364
 21
30.40000000000009
 31
0.0
  0
LINE
  5
431
330
21
100
AcDbEntity
  8
0
370
    -3
100
AcDbLine
 10
-82.50000000000364
 20
30.0
 30
0.0
 11
-83.00000000000364
 21
30.0
 31
0.0
  0
LINE
  5
432
330
21
100
AcDbEntity
  8
0
370
    -3
100
AcDbLine
 10
-82.50000000000364
 20
75.0
 30
0.0
 11
-83.00000000000364
 21
75.0
 31
0.0
  0
LINE
  5
433
330
21
100
AcDbEntity
  8
0
370
    -3
100
AcDbLine
 10
-82.50000000000364
 20
74.59999999999991
 30
0.0
 11
-83.00000000000364
 21
74.59999999999991
 31
0.0
  0
LINE
  5
434
330
21
100
AcDbEntity
  8
0
370
    -3
100
AcDbLine
 10
-82.50000000000364
 20
32.0
 30
0.0
 11
-83.00000000000364
 21
32.0
 31
0.0
  0
LINE
  5
435
330
21
100
AcDbEntity
  8
0
370
    -3
100
AcDbLine
 10
-82.50000000000364
 20
73.0
 30
0.0
 11
-83.00000000000364
 21
73.0
 31
0.0
  0
LINE
  5
436
330
21
100
AcDbEntity
  8
0
370
    -3
100
AcDbLine
 10
-82.50000000000364
 20
29.0
 30
0.0
 11
-83.00000000000364
 21
29.0
 31
0.0
  0
LINE
  5
437
330
21
100
AcDbEntity
  8
0
370
    -3
100
AcDbLine
 10
-82.50000000000364
 20
1.0
 30
0.0
 11
-83.00000000000364
 21
1.0
 31
0.0
  0
LINE
  5
438
330
21
100
AcDbEntity
  8
0
370
    -3
100
AcDbLine
 10
-82.50000000000364
 20
0.0
 30
0.0
 11
-83.00000000000364
 21
0.0
 31
0.0
  0
LINE
  5
439
330
21
100
AcDbEntity
  8
0
370
    -3
100
AcDbLine
 10
-10.90888999999879
 20
52.44704546406501
 30
0.0
 11
-27.70888839184772
 21
52.44704546406774
 31
0.0
  0
LINE
  5
43A
330
21
100
AcDbEntity
  8
0
370
    -3
100
AcDbLine
 10
-27.70888999999988
 20
62.24704546406701
 30
0.0
 11
-10.90888999999879
 21
62.24704546406701
 31
0.0
  0
ARC
  5
43B
330
21
100
AcDbEntity
  8
0
370
    -3
100
AcDbCircle
 10
-27.70888999999806
 20
61.24704546406701
 30
0.0
 40
0.999999999999773
100
AcDbArc
 50
90.00000000010422
 51
180.0
  0
ARC
  5
43C
330
21
100
AcDbEntity
  8
0
370
    -3
100
AcDbCircle
 10
-10.90889000000061
 20
61.24704546406701
 30
0.0
 40
1.00000000000045
100
AcDbArc
 50
0.0
 51
89.99999999989578
  0
LINE
  5
43D
330
21
100
AcDbEntity
  8
0
370
    -3
100
AcDbLine
 10
-9.908889999998792
 20
61.2470454640661
 30
0.0
 11
-9.908889999998792
 21
53.44704546406683
 31
0.0
  0
ARC
  5
43E
330
21
100
AcDbEntity
  8
0
370
    -3
100
AcDbCircle
 10
-10.90888999999879
 20
53.44704546406683
 30
0.0
 40
1.00000000000111
100
AcDbArc
 50
270.0
 51
0.0
  0
ARC
  5
43F
330
21
100
AcDbEntity
  8
0
370
    -3
100
AcDbCircle
 10
-27.70888999999806
 20
53.44704546406592
 30
0.0
 40
0.999999999999972
100
AcDbArc
 50
180.0
 51
270.0000921402274
  0
LINE
  5
440
330
21
100
AcDbEntity
  8
0
370
    -3
100
AcDbLine
 10
-28.70888999999806
 20
53.44704546406592
 30
0.0
 11
-28.70888999999806
 21
61.24704546406792
 31
0.0
  0
LINE
  5
441
330
21
100
AcDbEntity
  8
0
370
    -3
100
AcDbLine
 10
-31.05247410417178
 20
20.90912818406741
 30
0.0
 11
-31.05247410417178
 21
21.13412818406732
 31
0.0
  0
LINE
  5
442
330
21
100
AcDbEntity
  8
0
370
    -3
100
AcDbLine
 10
-31.05247410417178
 20
20.6841281840675
 30
0.0
 11
-31.05247410417178
 21
20.90912818406741
 31
0.0
  0
LINE
  5
443
330
21
100
AcDbEntity
  8
0
370
    -3
100
AcDbLine
 10
-2.73247410417207
 20
20.90912818406741
 30
0.0
 11
-31.05247410417178
 21
20.90912818406741
 31
0.0
  0
LINE
  5
444
330
21
100
AcDbEntity
  8
0
370
    -3
100
AcDbLine
 10
-2.73247410417207
 20
20.6841281840675
 30
0.0
 11
-2.73247410417207
 21
20.90912818406741
 31
0.0
  0
LINE
  5
445
330
21
100
AcDbEntity
  8
0
370
    -3
100
AcDbLine
 10
-2.73247410417207
 20
20.6841281840675
 30
0.0
 11
-31.05247410417178
 21
20.6841281840675
 31
0.0
  0
LINE
  5
446
330
21
100
AcDbEntity
  8
0
370
    -3
100
AcDbLine
 10
-2.73247410417207
 20
20.90912818406741
 30
0.0
 11
-2.73247410417207
 21
21.13412818406732
 31
0.0
  0
LINE
  5
447
330
21
100
AcDbEntity
  8
0
370
    -3
100
AcDbLine
 10
-24.82997410417192
 20
22.04412818406763
 30
0.0
 11
-24.82997410417192
 21
22.07003414782093
 31
0.0
  0
LINE
  5
448
330
21
100
AcDbEntity
  8
0
370
    -3
100
AcDbLine
 10
-22.92997410417229
 20
22.07003414782093
 30
0.0
 11
-24.82997410417192
 21
22.07003414782093
 31
0.0
  0
LINE
  5
449
330
21
100
AcDbEntity
  8
0
370
    -3
100
AcDbLine
 10
-22.92997410417229
 20
22.04412818406763
 30
0.0
 11
-22.92997410417229
 21
22.07003414782093
 31
0.0
  0
LINE
  5
44A
330
21
100
AcDbEntity
  8
0
370
    -3
100
AcDbLine
 10
-22.92997410417229
 20
22.04412818406763
 30
0.0
 11
-24.82997410417192
 21
22.04412818406763
 31
0.0
  0
LINE
  5
44B
330
21
100
AcDbEntity
  8
0
370
    -3
100
AcDbLine
 10
-10.85497410417156
 20
22.07003414782093
 30
0.0
 11
-8.954974104171924
 21
22.07003414782093
 31
0.0
  0
LINE
  5
44C
330
21
100
AcDbEntity
  8
0
370
    -3
100
AcDbLine
 10
-8.954974104171924
 20
22.04412818406763
 30
0.0
 11
-8.954974104171924
 21
22.07003414782093
 31
0.0
  0
LINE
  5
44D
330
21
100
AcDbEntity
  8
0
370
    -3
100
AcDbLine
 10
-10.85497410417156
 20
22.04412818406763
 30
0.0
 11
-8.954974104171924
 21
22.04412818406763
 31
0.0
  0
LINE
  5
44E
330
21
100
AcDbEntity
  8
0
370
    -3
100
AcDbLine
 10
-10.85497410417156
 20
22.04412818406763
 30
0.0
 11
-10.85497410417156
 21
22.07003414782093
 31
0.0
  0
LINE
  5
44F
330
21
100
AcDbEntity
  8
0
370
    -3
100
AcDbLine
 10
-1.73247410417207
 20
20.6841281840675
 30
0.0
 11
-2.73247410417207
 21
20.6841281840675
 31
0.0
  0
LINE
  5
450
330
21
100
AcDbEntity
  8
0
370
    -3
100
AcDbLine
 10
-10.85497410417156
 20
23.6841281840675
 30
0.0
 11
-10.85497410417156
 21
23.67117520219108
 31
0.0
  0
LINE
  5
451
330
21
100
AcDbEntity
  8
0
370
    -3
100
AcDbLine
 10
-10.85497410417156
 20
23.67117520219108
 30
0.0
 11
-10.85497410417156
 21
22.07003414782093
 31
0.0
  0
LINE
  5
452
330
21
100
AcDbEntity
  8
0
370
    -3
100
AcDbLine
 10
-1.632474104171706
 20
3.314128184067613
 30
0.0
 11
-1.632474104171706
 21
3.61412818406734
 31
0.0
  0
LINE
  5
453
330
21
100
AcDbEntity
  8
0
370
    -3
100
AcDbLine
 10
-1.632474104171706
 20
3.61412818406734
 30
0.0
 11
-1.632474104171706
 21
20.58412818406759
 31
0.0
  0
LINE
  5
454
330
21
100
AcDbEntity
  8
0
370
    -3
100
AcDbLine
 10
-22.92997410417229
 20
22.07003414782093
 30
0.0
 11
-22.92997410417229
 21
23.67117520219108
 31
0.0
  0
LINE
  5
455
330
21
100
AcDbEntity
  8
0
370
    -3
100
AcDbLine
 10
-22.92997410417229
 20
23.67117520219108
 30
0.0
 11
-22.92997410417229
 21
23.6841281840675
 31
0.0
  0
LINE
  5
456
330
21
100
AcDbEntity
  8
0
370
    -3
100
AcDbLine
 10
-32.15247410417214
 20
3.314128184067613
 30
0.0
 11
-32.15247410417214
 21
3.61412818406734
 31
0.0
  0
LINE
  5
457
330
21
100
AcDbEntity
  8
0
370
    -3
100
AcDbLine
 10
-32.15247410417214
 20
20.58412818406759
 30
0.0
 11
-32.15247410417214
 21
3.61412818406734
 31
0.0
  0
LINE
  5
458
330
21
100
AcDbEntity
  8
0
370
    -3
100
AcDbLine
 10
-32.15247410417214
 20
3.61412818406734
 30
0.0
 11
-1.632474104171706
 21
3.61412818406734
 31
0.0
  0
ARC
  5
459
330
21
100
AcDbEntity
  8
0
370
    -3
100
AcDbCircle
 10
-32.05247410417178
 20
20.58412818406759
 30
0.0
 40
0.1
100
AcDbArc
 50
90.0
 51
180.0
  0
LINE
  5
45A
330
21
100
AcDbEntity
  8
0
370
    -3
100
AcDbLine
 10
-32.05247410417178
 20
20.6841281840675
 30
0.0
 11
-31.05247410417178
 21
20.6841281840675
 31
0.0
  0
ARC
  5
45B
330
21
100
AcDbEntity
  8
0
370
    -3
100
AcDbCircle
 10
-1.73247410417207
 20
20.58412818406759
 30
0.0
 40
0.1
100
AcDbArc
 50
0.0
 51
90.0
  0
LINE
  5
45C
330
21
100
AcDbEntity
  8
0
370
    -3
100
AcDbLine
 10
-22.92997410417229
 20
23.67117520219108
 30
0.0
 11
-24.82997410417192
 21
23.67117520219108
 31
0.0
  0
LINE
  5
45D
330
21
100
AcDbEntity
  8
0
370
    -3
100
AcDbLine
 10
-24.82997410417192
 20
22.07003414782093
 30
0.0
 11
-24.82997410417192
 21
23.67117520219108
 31
0.0
  0
LINE
  5
45E
330
21
100
AcDbEntity
  8
0
370
    -3
100
AcDbLine
 10
-32.15247410417214
 20
3.314128184067613
 30
0.0
 11
-1.632474104171706
 21
3.314128184067613
 31
0.0
  0
LINE
  5
45F
330
21
100
AcDbEntity
  8
0
370
    -3
100
AcDbLine
 10
-8.954974104171924
 20
23.67117520219108
 30
0.0
 11
-8.954974104171924
 21
22.07003414782093
 31
0.0
  0
LINE
  5
460
330
21
100
AcDbEntity
  8
0
370
    -3
100
AcDbLine
 10
-8.954974104171924
 20
23.6841281840675
 30
0.0
 11
-8.954974104171924
 21
23.67117520219108
 31
0.0
  0
LINE
  5
461
330
21
100
AcDbEntity
  8
0
370
    -3
100
AcDbLine
 10
-10.85497410417156
 20
23.67117520219108
 30
0.0
 11
-8.954974104171924
 21
23.67117520219108
 31
0.0
  0
LINE
  5
462
330
21
100
AcDbEntity
  8
0
370
    -3
100
AcDbLine
 10
-24.82997410417192
 20
23.67117520219108
 30
0.0
 11
-24.82997410417192
 21
23.6841281840675
 31
0.0
  0
LINE
  5
463
330
21
100
AcDbEntity
  8
0
370
    -3
100
AcDbLine
 10
-8.91747410417156
 20
23.6841281840675
 30
0.0
 11
-8.91747410417156
 21
22.03412818406741
 31
0.0
  0
LINE
  5
464
330
21
100
AcDbEntity
  8
0
370
    -3
100
AcDbLine
 10
-22.89247410417192
 20
22.03412818406741
 30
0.0
 11
-22.89247410417192
 21
23.6841281840675
 31
0.0
  0
LINE
  5
465
330
21
100
AcDbEntity
  8
0
370
    -3
100
AcDbLine
 10
-1.532474104171342
 20
3.61412818406734
 30
0.0
 11
-1.532474104171342
 21
7.214128184067249
 31
0.0
  0
LINE
  5
466
330
21
100
AcDbEntity
  8
0
370
    -3
100
AcDbLine
 10
-32.45247410417142
 20
20.6841281840675
 30
0.0
 11
-32.45247410417142
 21
20.58412818406759
 31
0.0
  0
LINE
  5
467
330
21
100
AcDbEntity
  8
0
370
    -3
100
AcDbLine
 10
-32.45247410417142
 20
20.58412818406759
 30
0.0
 11
-32.45247410417142
 21
3.61412818406734
 31
0.0
  0
ARC
  5
468
330
21
100
AcDbEntity
  8
0
370
    -3
100
AcDbCircle
 10
-1.632474104171706
 20
3.61412818406734
 30
0.0
 40
0.3
100
AcDbArc
 50
270.0
 51
0.0
  0
ARC
  5
469
330
21
100
AcDbEntity
  8
0
370
    -3
100
AcDbCircle
 10
-1.632474104171706
 20
3.61412818406734
 30
0.0
 40
0.1
100
AcDbArc
 50
270.0
 51
0.0
  0
LINE
  5
46A
330
21
100
AcDbEntity
  8
0
370
    -3
100
AcDbLine
 10
-1.332474104172434
 20
20.58412818406759
 30
0.0
 11
-1.532474104171342
 21
20.58412818406759
 31
0.0
  0
LINE
  5
46B
330
21
100
AcDbEntity
  8
0
370
    -3
100
AcDbLine
 10
-1.332474104172434
 20
3.61412818406734
 30
0.0
 11
-1.332474104172434
 21
20.58412818406759
 31
0.0
  0
LINE
  5
46C
330
21
100
AcDbEntity
  8
0
370
    -3
100
AcDbLine
 10
-1.532474104171342
 20
20.6841281840675
 30
0.0
 11
-1.332474104172434
 21
20.6841281840675
 31
0.0
  0
LINE
  5
46D
330
21
100
AcDbEntity
  8
0
370
    -3
100
AcDbLine
 10
-1.332474104172434
 20
20.6841281840675
 30
0.0
 11
-1.332474104172434
 21
20.58412818406759
 31
0.0
  0
LINE
  5
46E
330
21
100
AcDbEntity
  8
0
370
    -3
100
AcDbLine
 10
-32.45247410417142
 20
20.6841281840675
 30
0.0
 11
-32.25247410417251
 21
20.6841281840675
 31
0.0
  0
LINE
  5
46F
330
21
100
AcDbEntity
  8
0
370
    -3
100
AcDbLine
 10
-32.25247410417251
 20
20.58412818406759
 30
0.0
 11
-32.45247410417142
 21
20.58412818406759
 31
0.0
  0
LINE
  5
470
330
21
100
AcDbEntity
  8
0
370
    -3
100
AcDbLine
 10
-32.25247410417251
 20
7.214128184067704
 30
0.0
 11
-32.25247410417251
 21
3.61412818406734
 31
0.0
  0
ARC
  5
471
330
21
100
AcDbEntity
  8
0
370
    -3
100
AcDbCircle
 10
-32.15247410417214
 20
3.61412818406734
 30
0.0
 40
0.1
100
AcDbArc
 50
180.0
 51
270.0
  0
ARC
  5
472
330
21
100
AcDbEntity
  8
0
370
    -3
100
AcDbCircle
 10
-32.15247410417214
 20
3.61412818406734
 30
0.0
 40
0.3
100
AcDbArc
 50
180.0
 51
270.0
  0
ARC
  5
473
330
21
100
AcDbEntity
  8
0
370
    -3
100
AcDbCircle
 10
-1.24890267560113
 20
21.13412818406732
 30
0.0
 40
0.493571428571376
100
AcDbArc
 50
180.0
 51
230.0337869562463
  0
LINE
  5
474
330
21
100
AcDbEntity
  8
0
370
    -3
100
AcDbLine
 10
-1.542474104171561
 20
24.1841281840675
 30
0.0
 11
-1.622474104171488
 21
24.1841281840675
 31
0.0
  0
LINE
  5
475
330
21
100
AcDbEntity
  8
0
370
    -3
100
AcDbLine
 10
-1.622474104171488
 20
24.28412818406741
 30
0.0
 11
-1.542474104171561
 21
24.28412818406741
 31
0.0
  0
LINE
  5
476
330
21
100
AcDbEntity
  8
0
370
    -3
100
AcDbLine
 10
-1.542474104171561
 20
24.28412818406741
 30
0.0
 11
-1.542474104171561
 21
24.1841281840675
 31
0.0
  0
ARC
  5
477
330
21
100
AcDbEntity
  8
0
370
    -3
100
AcDbCircle
 10
-1.626045532742864
 20
20.6841281840675
 30
0.0
 40
0.293571428571376
100
AcDbArc
 50
0.0
 51
50.0337869563296
  0
LINE
  5
478
330
21
100
AcDbEntity
  8
0
370
    -3
100
AcDbLine
 10
-32.24247410417229
 20
24.28412818406741
 30
0.0
 11
-32.14247410417192
 21
24.28412818406741
 31
0.0
  0
LINE
  5
479
330
21
100
AcDbEntity
  8
0
370
    -3
100
AcDbLine
 10
-32.14247410417192
 20
24.1841281840675
 30
0.0
 11
-32.24247410417229
 21
24.1841281840675
 31
0.0
  0
ARC
  5
47A
330
21
100
AcDbEntity
  8
0
370
    -3
100
AcDbCircle
 10
-1.626045532742864
 20
20.6841281840675
 30
0.0
 40
0.093571428571376
100
AcDbArc
 50
0.0
 51
50.03378695676915
  0
ARC
  5
47B
330
21
100
AcDbEntity
  8
0
370
    -3
100
AcDbCircle
 10
-1.24890267560113
 20
21.13412818406732
 30
0.0
 40
0.293571428571376
100
AcDbArc
 50
180.0
 51
230.0337869563296
  0
LINE
  5
47C
330
21
100
AcDbEntity
  8
0
370
    -3
100
AcDbLine
 10
-1.542474104171561
 20
24.1841281840675
 30
0.0
 11
-1.542474104171561
 21
21.13412818406732
 31
0.0
  0
ARC
  5
47D
330
21
100
AcDbEntity
  8
0
370
    -3
100
AcDbCircle
 10
-32.53604553274272
 20
21.13412818406732
 30
0.0
 40
0.493571428571376
100
AcDbArc
 50
309.9662130437537
 51
0.0
  0
ARC
  5
47E
330
21
100
AcDbEntity
  8
0
370
    -3
100
AcDbCircle
 10
-32.15890267560098
 20
20.6841281840675
 30
0.0
 40
0.093571428571376
100
AcDbArc
 50
129.9662130432309
 51
180.0
  0
ARC
  5
47F
330
21
100
AcDbEntity
  8
0
370
    -3
100
AcDbCircle
 10
-32.15890267560098
 20
20.6841281840675
 30
0.0
 40
0.293571428571376
100
AcDbArc
 50
129.9662130436704
 51
180.0
  0
ARC
  5
480
330
21
100
AcDbEntity
  8
0
370
    -3
100
AcDbCircle
 10
-32.53604553274272
 20
21.13412818406732
 30
0.0
 40
0.293571428571376
100
AcDbArc
 50
309.9662130436704
 51
0.0
  0
LINE
  5
481
330
21
100
AcDbEntity
  8
0
370
    -3
100
AcDbLine
 10
-32.4424741041712
 20
22.1465860596968
 30
0.0
 11
-32.45247410417142
 21
22.07003414782093
 31
0.0
  0
LINE
  5
482
330
21
100
AcDbEntity
  8
0
370
    -3
100
AcDbLine
 10
-32.45247410417142
 20
22.07003414782093
 30
0.0
 11
-32.4424741041712
 21
22.06872784471807
 31
0.0
  0
LINE
  5
483
330
21
100
AcDbEntity
  8
0
370
    -3
100
AcDbLine
 10
-1.522474104171124
 20
23.52452047346833
 30
0.0
 11
-1.541631656886238
 21
23.67117520219108
 31
0.0
  0
LINE
  5
484
330
21
100
AcDbEntity
  8
0
370
    -3
100
AcDbLine
 10
-1.522474104171124
 20
22.04521438886968
 30
0.0
 11
-1.530789209602517
 21
22.04412818406763
 31
0.0
  0
ARC
  5
485
330
21
100
AcDbEntity
  8
0
370
    -3
100
AcDbCircle
 10
-1.442474104171197
 20
23.6841281840675
 30
0.0
 40
0.1
100
AcDbArc
 50
180.0
 51
187.4424231951058
  0
LINE
  5
486
330
21
100
AcDbEntity
  8
0
370
    -3
100
AcDbLine
 10
-1.530789209602517
 20
22.04412818406763
 30
0.0
 11
-1.542474104171561
 21
22.13357828600192
 31
0.0
  0
LINE
  5
487
330
21
100
AcDbEntity
  8
0
370
    -3
100
AcDbLine
 10
-10.88247410417171
 20
23.6841281840675
 30
0.0
 11
-8.907474104171342
 21
23.6841281840675
 31
0.0
  0
LINE
  5
488
330
21
100
AcDbEntity
  8
0
370
    -3
100
AcDbLine
 10
-8.907474104171342
 20
23.6841281840675
 30
0.0
 11
-8.907474104171342
 21
22.03412818406741
 31
0.0
  0
LINE
  5
489
330
21
100
AcDbEntity
  8
0
370
    -3
100
AcDbLine
 10
-1.622474104171488
 20
24.58412818406759
 30
0.0
 11
-32.14247410417192
 21
24.58412818406759
 31
0.0
  0
LINE
  5
48A
330
21
100
AcDbEntity
  8
0
370
    -3
100
AcDbLine
 10
-1.622474104171488
 20
24.58412818406759
 30
0.0
 11
-1.622474104171488
 21
24.28412818406741
 31
0.0
  0
LINE
  5
48B
330
21
100
AcDbEntity
  8
0
370
    -3
100
AcDbLine
 10
-1.622474104171488
 20
24.28412818406741
 30
0.0
 11
-32.14247410417192
 21
24.28412818406741
 31
0.0
  0
LINE
  5
48C
330
21
100
AcDbEntity
  8
0
370
    -3
100
AcDbLine
 10
-32.14247410417192
 20
24.58412818406759
 30
0.0
 11
-32.14247410417192
 21
24.28412818406741
 31
0.0
  0
LINE
  5
48D
330
21
100
AcDbEntity
  8
0
370
    -3
100
AcDbLine
 10
-32.14247410417192
 20
21.13412818406732
 30
0.0
 11
-1.622474104171488
 21
21.13412818406732
 31
0.0
  0
LINE
  5
48E
330
21
100
AcDbEntity
  8
0
370
    -3
100
AcDbLine
 10
-1.622474104171488
 20
21.13412818406732
 30
0.0
 11
-1.622474104171488
 21
24.28412818406741
 31
0.0
  0
LINE
  5
48F
330
21
100
AcDbEntity
  8
0
370
    -3
100
AcDbLine
 10
-32.14247410417192
 20
24.28412818406741
 30
0.0
 11
-32.14247410417192
 21
21.13412818406732
 31
0.0
  0
LINE
  5
490
330
21
100
AcDbEntity
  8
0
370
    -3
100
AcDbLine
 10
-24.85747410417207
 20
22.03412818406741
 30
0.0
 11
-22.88247410417171
 21
22.03412818406741
 31
0.0
  0
LINE
  5
491
330
21
100
AcDbEntity
  8
0
370
    -3
100
AcDbLine
 10
-22.88247410417171
 20
22.03412818406741
 30
0.0
 11
-22.88247410417171
 21
23.6841281840675
 31
0.0
  0
LINE
  5
492
330
21
100
AcDbEntity
  8
0
370
    -3
100
AcDbLine
 10
-22.88247410417171
 20
23.6841281840675
 30
0.0
 11
-24.85747410417207
 21
23.6841281840675
 31
0.0
  0
LINE
  5
493
330
21
100
AcDbEntity
  8
0
370
    -3
100
AcDbLine
 10
-24.85747410417207
 20
23.6841281840675
 30
0.0
 11
-24.85747410417207
 21
22.03412818406741
 31
0.0
  0
LINE
  5
494
330
21
100
AcDbEntity
  8
0
370
    -3
100
AcDbLine
 10
-10.88247410417171
 20
22.03412818406741
 30
0.0
 11
-10.88247410417171
 21
23.6841281840675
 31
0.0
  0
LINE
  5
495
330
21
100
AcDbEntity
  8
0
370
    -3
100
AcDbLine
 10
-8.907474104171342
 20
22.03412818406741
 30
0.0
 11
-10.88247410417171
 21
22.03412818406741
 31
0.0
  0
LINE
  5
496
330
21
100
AcDbEntity
  8
0
370
    -3
100
AcDbLine
 10
-32.24247410417229
 20
24.28412818406741
 30
0.0
 11
-32.24247410417229
 21
21.13412818406732
 31
0.0
  0
LINE
  5
497
330
21
100
AcDbEntity
  8
0
370
    -3
100
AcDbLine
 10
-32.4424741041712
 20
21.13412818406732
 30
0.0
 11
-32.24247410417229
 21
21.13412818406732
 31
0.0
  0
LINE
  5
498
330
21
100
AcDbEntity
  8
0
370
    -3
100
AcDbLine
 10
-32.4424741041712
 20
24.28412818406741
 30
0.0
 11
-32.4424741041712
 21
21.13412818406732
 31
0.0
  0
ARC
  5
499
330
21
100
AcDbEntity
  8
0
370
    -3
100
AcDbCircle
 10
-32.14247410417192
 20
24.28412818406741
 30
0.0
 40
0.3
100
AcDbArc
 50
90.0
 51
180.0
  0
ARC
  5
49A
330
21
100
AcDbEntity
  8
0
370
    -3
100
AcDbCircle
 10
-32.14247410417192
 20
24.28412818406741
 30
0.0
 40
0.1
100
AcDbArc
 50
90.0
 51
180.0
  0
ARC
  5
49B
330
21
100
AcDbEntity
  8
0
370
    -3
100
AcDbCircle
 10
-1.622474104171488
 20
24.28412818406741
 30
0.0
 40
0.3
100
AcDbArc
 50
0.0
 51
90.0
  0
LINE
  5
49C
330
21
100
AcDbEntity
  8
0
370
    -3
100
AcDbLine
 10
-1.322474104172215
 20
21.13412818406732
 30
0.0
 11
-1.322474104172215
 21
24.28412818406741
 31
0.0
  0
LINE
  5
49D
330
21
100
AcDbEntity
  8
0
370
    -3
100
AcDbLine
 10
-1.322474104172215
 20
21.13412818406732
 30
0.0
 11
-1.522474104171124
 21
21.13412818406732
 31
0.0
  0
LINE
  5
49E
330
21
100
AcDbEntity
  8
0
370
    -3
100
AcDbLine
 10
-1.522474104171124
 20
21.13412818406732
 30
0.0
 11
-1.522474104171124
 21
24.28412818406741
 31
0.0
  0
ARC
  5
49F
330
21
100
AcDbEntity
  8
0
370
    -3
100
AcDbCircle
 10
-1.622474104171488
 20
24.28412818406741
 30
0.0
 40
0.1
100
AcDbArc
 50
0.0
 51
90.0
  0
LINE
  5
4A0
330
21
100
AcDbEntity
  8
0
370
    -3
100
AcDbLine
 10
-1.522474104171124
 20
21.13412818406732
 30
0.0
 11
-1.542474104171561
 21
21.13412818406732
 31
0.0
  0
LINE
  5
4A1
330
21
100
AcDbEntity
  8
0
370
    -3
100
AcDbLine
 10
-1.522474104171124
 20
24.28412818406741
 30
0.0
 11
-1.542474104171561
 21
24.28412818406741
 31
0.0
  0
LINE
  5
4A2
330
21
100
AcDbEntity
  8
0
370
    -3
100
AcDbLine
 10
-1.532474104171342
 20
7.214128184067249
 30
0.0
 11
-1.532474104171342
 21
20.6841281840675
 31
0.0
  0
LINE
  5
4A3
330
21
100
AcDbEntity
  8
0
370
    -3
100
AcDbLine
 10
-32.25247410417251
 20
7.214128184067704
 30
0.0
 11
-32.15247410417214
 21
7.214128184067704
 31
0.0
  0
LINE
  5
4A4
330
21
100
AcDbEntity
  8
0
370
    -3
100
AcDbLine
 10
-32.25247410417251
 20
7.214128184067704
 30
0.0
 11
-32.25247410417251
 21
20.6841281840675
 31
0.0
  0
LINE
  5
4A5
330
21
100
AcDbEntity
  8
0
370
    -3
100
AcDbLine
 10
-32.25247410417251
 20
20.6841281840675
 30
0.0
 11
-32.05247410417178
 21
20.6841281840675
 31
0.0
  0
LINE
  5
4A6
330
21
100
AcDbEntity
  8
0
370
    -3
100
AcDbLine
 10
-1.73247410417207
 20
20.6841281840675
 30
0.0
 11
-1.532474104171342
 21
20.6841281840675
 31
0.0
  0
LINE
  5
4A7
330
21
100
AcDbEntity
  8
0
370
    -3
100
AcDbLine
 10
-1.532474104171342
 20
7.214128184067249
 30
0.0
 11
-1.632474104171706
 21
7.214128184067249
 31
0.0
  0
LINE
  5
4A8
330
21
100
AcDbEntity
  8
0
370
    -3
100
AcDbLine
 10
-32.04247410417156
 20
20.6841281840675
 30
0.0
 11
-32.04247410417156
 21
21.13412818406732
 31
0.0
  0
LINE
  5
4A9
330
21
100
AcDbEntity
  8
0
370
    -3
100
AcDbLine
 10
-1.742474104172288
 20
21.13412818406732
 30
0.0
 11
-1.742474104172288
 21
20.6841281840675
 31
0.0
  0
ARC
  5
4AA
330
21
100
AcDbEntity
  8
0
370
    -3
100
AcDbCircle
 10
42.6232
 20
3.669911064067492
 30
0.0
 40
0.1
100
AcDbArc
 50
180.0
 51
270.0
  0
LINE
  5
4AB
330
21
100
AcDbEntity
  8
0
370
    -3
100
AcDbLine
 10
42.52319999999963
 20
3.669911064067492
 30
0.0
 11
42.6232
 21
3.669911064067492
 31
0.0
  0
ARC
  5
4AC
330
21
100
AcDbEntity
  8
0
370
    -3
100
AcDbCircle
 10
57.90320000000065
 20
3.669911064067492
 30
0.0
 40
0.1
100
AcDbArc
 50
270.0
 51
0.0
  0
LINE
  5
4AD
330
21
100
AcDbEntity
  8
0
370
    -3
100
AcDbLine
 10
58.00320000000102
 20
3.669911064067492
 30
0.0
 11
57.90320000000065
 21
3.669911064067492
 31
0.0
  0
LINE
  5
4AE
330
21
100
AcDbEntity
  8
0
370
    -3
100
AcDbLine
 10
58.00320000000102
 20
12.40991106406773
 30
0.0
 11
58.00320000000102
 21
12.27955496894356
 31
0.0
  0
LINE
  5
4AF
330
21
100
AcDbEntity
  8
0
370
    -3
100
AcDbLine
 10
58.00320000000102
 20
12.27955496894356
 30
0.0
 11
58.00320000000102
 21
12.27953496894361
 31
0.0
  0
LINE
  5
4B0
330
21
100
AcDbEntity
  8
0
370
    -3
100
AcDbLine
 10
58.00320000000102
 20
12.27953496894361
 30
0.0
 11
58.00320000000102
 21
3.669911064067492
 31
0.0
  0
LINE
  5
4B1
330
21
100
AcDbEntity
  8
0
370
    -3
100
AcDbLine
 10
42.52319999999963
 20
3.669911064067492
 30
0.0
 11
42.52319999999963
 21
12.27953496894361
 31
0.0
  0
LINE
  5
4B2
330
21
100
AcDbEntity
  8
0
370
    -3
100
AcDbLine
 10
42.52319999999963
 20
12.27953496894361
 30
0.0
 11
42.52319999999963
 21
12.27955496894356
 31
0.0
  0
LINE
  5
4B3
330
21
100
AcDbEntity
  8
0
370
    -3
100
AcDbLine
 10
42.52319999999963
 20
12.27955496894356
 30
0.0
 11
42.52319999999963
 21
12.40991106406773
 31
0.0
  0
LINE
  5
4B4
330
21
100
AcDbEntity
  8
0
370
    -3
100
AcDbLine
 10
56.52651215112928
 20
24.90991106406773
 30
0.0
 11
51.09988784887173
 21
24.90991106406773
 31
0.0
  0
LINE
  5
4B5
330
21
100
AcDbEntity
  8
0
370
    -3
100
AcDbLine
 10
49.42651215112892
 20
24.90991106406773
 30
0.0
 11
43.99988784887319
 21
24.90991106406773
 31
0.0
  0
LINE
  5
4B6
330
21
100
AcDbEntity
  8
0
370
    -3
100
AcDbLine
 10
43.99988784886773
 20
25.00991106406764
 30
0.0
 11
44.00100785452378
 21
25.00991106406764
 31
0.0
  0
LINE
  5
4B7
330
21
100
AcDbEntity
  8
0
370
    -3
100
AcDbLine
 10
44.00100785452378
 20
25.00991106406764
 30
0.0
 11
49.42539214547651
 21
25.00991106406764
 31
0.0
  0
LINE
  5
4B8
330
21
100
AcDbEntity
  8
0
370
    -3
100
AcDbLine
 10
49.42539214547651
 20
25.00991106406764
 30
0.0
 11
49.42651215113438
 21
25.00991106406764
 31
0.0
  0
LINE
  5
4B9
330
21
100
AcDbEntity
  8
0
370
    -3
100
AcDbLine
 10
51.09988784886809
 20
25.00991106406764
 30
0.0
 11
51.10100785452414
 21
25.00991106406764
 31
0.0
  0
LINE
  5
4BA
330
21
100
AcDbEntity
  8
0
370
    -3
100
AcDbLine
 10
51.10100785452414
 20
25.00991106406764
 30
0.0
 11
56.52539214547687
 21
25.00991106406764
 31
0.0
  0
LINE
  5
4BB
330
21
100
AcDbEntity
  8
0
370
    -3
100
AcDbLine
 10
56.52539214547687
 20
25.00991106406764
 30
0.0
 11
56.52651215113474
 21
25.00991106406764
 31
0.0
  0
ARC
  5
4BC
330
21
100
AcDbEntity
  8
0
370
    -3
100
AcDbCircle
 10
58.1132000000016
 20
25.04028715919549
 30
0.0
 40
0.25000000000024
100
AcDbArc
 50
211.4332165684057
 51
212.8598803786488
  0
LINE
  5
4BD
330
21
100
AcDbEntity
  8
0
370
    -3
100
AcDbLine
 10
57.90320000000065
 20
12.40991106406773
 30
0.0
 11
57.90320000000065
 21
24.90464055953271
 31
0.0
  0
LINE
  5
4BE
330
21
100
AcDbEntity
  8
0
370
    -3
100
AcDbLine
 10
57.90320000000065
 20
3.669911064067492
 30
0.0
 11
57.90320000000065
 21
12.40991106406773
 31
0.0
  0
LINE
  5
4BF
330
21
100
AcDbEntity
  8
0
370
    -3
100
AcDbLine
 10
57.90320000000065
 20
3.669911064067492
 30
0.0
 11
42.6232
 21
3.669911064067492
 31
0.0
  0
LINE
  5
4C0
330
21
100
AcDbEntity
  8
0
370
    -3
100
AcDbLine
 10
42.6232
 20
3.669911064067492
 30
0.0
 11
42.6232
 21
12.40991106406773
 31
0.0
  0
LINE
  5
4C1
330
21
100
AcDbEntity
  8
0
370
    -3
100
AcDbLine
 10
42.6232
 20
24.90464055953271
 30
0.0
 11
42.6232
 21
12.40991106406773
 31
0.0
  0
ARC
  5
4C2
330
21
100
AcDbEntity
  8
0
370
    -3
100
AcDbCircle
 10
42.41320000000087
 20
25.04028715919549
 30
0.0
 40
0.25000000000024
100
AcDbArc
 50
327.1401196207748
 51
328.5667834311101
  0
LINE
  5
4C3
330
21
100
AcDbEntity
  8
0
370
    -3
100
AcDbLine
 10
43.99988784887319
 20
24.90991106406773
 30
0.0
 11
42.62651215112965
 21
24.90991106406773
 31
0.0
  0
ARC
  5
4C4
330
21
100
AcDbEntity
  8
0
370
    -3
100
AcDbCircle
 10
44.21320000000196
 20
25.04028715919549
 30
0.0
 40
0.25000000000024
100
AcDbArc
 50
211.4332165688899
 51
270.0
  0
LINE
  5
4C5
330
21
100
AcDbEntity
  8
0
370
    -3
100
AcDbLine
 10
44.21320000000196
 20
24.79028715919503
 30
0.0
 11
49.21320000000014
 21
24.79028715919503
 31
0.0
  0
ARC
  5
4C6
330
21
100
AcDbEntity
  8
0
370
    -3
100
AcDbCircle
 10
49.21320000000014
 20
25.04028715919549
 30
0.0
 40
0.25000000000024
100
AcDbArc
 50
270.0
 51
328.5667834311101
  0
LINE
  5
4C7
330
21
100
AcDbEntity
  8
0
370
    -3
100
AcDbLine
 10
51.09988784887173
 20
24.90991106406773
 30
0.0
 11
49.42651215112892
 21
24.90991106406773
 31
0.0
  0
ARC
  5
4C8
330
21
100
AcDbEntity
  8
0
370
    -3
100
AcDbCircle
 10
51.31320000000051
 20
25.04028715919549
 30
0.0
 40
0.25000000000024
100
AcDbArc
 50
211.4332165688899
 51
270.0
  0
LINE
  5
4C9
330
21
100
AcDbEntity
  8
0
370
    -3
100
AcDbLine
 10
56.31320000000051
 20
24.79028715919549
 30
0.0
 11
51.31320000000051
 21
24.79028715919503
 31
0.0
  0
ARC
  5
4CA
330
21
100
AcDbEntity
  8
0
370
    -3
100
AcDbCircle
 10
56.31320000000051
 20
25.04028715919549
 30
0.0
 40
0.25000000000024
100
AcDbArc
 50
270.0
 51
328.5667834311101
  0
LINE
  5
4CB
330
21
100
AcDbEntity
  8
0
370
    -3
100
AcDbLine
 10
57.899887848871
 20
24.90991106406773
 30
0.0
 11
56.52651215112928
 21
24.90991106406773
 31
0.0
  0
LINE
  5
4CC
330
21
100
AcDbEntity
  8
0
370
    -3
100
AcDbLine
 10
42.6232
 20
12.40991106406773
 30
0.0
 11
42.41106796564418
 21
12.40991106406773
 31
0.0
  0
LINE
  5
4CD
330
21
100
AcDbEntity
  8
0
370
    -3
100
AcDbLine
 10
42.32320000000072
 20
12.54028715919139
 30
0.0
 11
42.32320000000072
 21
24.77953496894361
 31
0.0
  0
LINE
  5
4CE
330
21
100
AcDbEntity
  8
0
370
    -3
100
AcDbLine
 10
42.3371123042125
 20
24.79028715919503
 30
0.0
 11
42.32382909821354
 21
24.79028715919503
 31
0.0
  0
LINE
  5
4CF
330
21
100
AcDbEntity
  8
0
370
    -3
100
AcDbLine
 10
58.20319999999992
 20
24.77953496894361
 30
0.0
 11
58.20319999999992
 21
12.54028715919139
 31
0.0
  0
LINE
  5
4D0
330
21
100
AcDbEntity
  8
0
370
    -3
100
AcDbLine
 10
58.11533203435647
 20
12.40991106406773
 30
0.0
 11
57.90320000000065
 21
12.40991106406773
 31
0.0
  0
LINE
  5
4D1
330
21
100
AcDbEntity
  8
0
370
    -3
100
AcDbLine
 10
58.18928769578815
 20
24.79028715919503
 30
0.0
 11
58.20257090371524
 21
24.79028715919503
 31
0.0
  0
LINE
  5
4D2
330
21
100
AcDbEntity
  8
0
370
    -3
100
AcDbLine
 10
56.52651215113474
 20
25.00991106406764
 30
0.0
 11
56.52651215113474
 21
25.20991106406746
 31
0.0
  0
LINE
  5
4D3
330
21
100
AcDbEntity
  8
0
370
    -3
100
AcDbLine
 10
57.89988784886737
 20
25.20991106406746
 30
0.0
 11
56.52651215113474
 21
25.20991106406746
 31
0.0
  0
LINE
  5
4D4
330
21
100
AcDbEntity
  8
0
370
    -3
100
AcDbLine
 10
42.6265121511351
 20
25.00991106406764
 30
0.0
 11
42.6265121511351
 21
25.19577971880153
 31
0.0
  0
LINE
  5
4D5
330
21
100
AcDbEntity
  8
0
370
    -3
100
AcDbLine
 10
42.6265121511351
 20
25.19577971880153
 30
0.0
 11
42.6265121511351
 21
25.20991106406746
 31
0.0
  0
LINE
  5
4D6
330
21
100
AcDbEntity
  8
0
370
    -3
100
AcDbLine
 10
49.42651215113438
 20
25.00991106406764
 30
0.0
 11
49.42651215113438
 21
25.20991106406746
 31
0.0
  0
LINE
  5
4D7
330
21
100
AcDbEntity
  8
0
370
    -3
100
AcDbLine
 10
51.09988784886809
 20
25.00991106406764
 30
0.0
 11
51.09988784886809
 21
25.20991106406746
 31
0.0
  0
LINE
  5
4D8
330
21
100
AcDbEntity
  8
0
370
    -3
100
AcDbLine
 10
51.09988784886809
 20
25.20991106406746
 30
0.0
 11
49.42651215113438
 21
25.20991106406746
 31
0.0
  0
LINE
  5
4D9
330
21
100
AcDbEntity
  8
0
370
    -3
100
AcDbLine
 10
43.99988784886773
 20
25.20991106406746
 30
0.0
 11
42.6265121511351
 21
25.20991106406746
 31
0.0
  0
LINE
  5
4DA
330
21
100
AcDbEntity
  8
0
370
    -3
100
AcDbLine
 10
57.89988784886737
 20
25.00991106406764
 30
0.0
 11
57.89988784886737
 21
25.19578160186438
 31
0.0
  0
LINE
  5
4DB
330
21
100
AcDbEntity
  8
0
370
    -3
100
AcDbLine
 10
57.89988784886737
 20
25.19578160186438
 30
0.0
 11
57.89988784886737
 21
25.20991106406746
 31
0.0
  0
LINE
  5
4DC
330
21
100
AcDbEntity
  8
0
370
    -3
100
AcDbLine
 10
43.99988784886773
 20
25.00991106406764
 30
0.0
 11
43.99988784886773
 21
25.20991106406746
 31
0.0
  0
LINE
  5
4DD
330
21
100
AcDbEntity
  8
0
370
    -3
100
AcDbLine
 10
57.90320000000065
 20
3.369911064067765
 30
0.0
 11
57.90320000000065
 21
3.669911064067492
 31
0.0
  0
LINE
  5
4DE
330
21
100
AcDbEntity
  8
0
370
    -3
100
AcDbLine
 10
57.90320000000065
 20
3.369911064067765
 30
0.0
 11
42.6232
 21
3.369911064067765
 31
0.0
  0
LINE
  5
4DF
330
21
100
AcDbEntity
  8
0
370
    -3
100
AcDbLine
 10
42.6232
 20
3.369911064067765
 30
0.0
 11
42.6232
 21
3.669911064067492
 31
0.0
  0
LINE
  5
4E0
330
21
100
AcDbEntity
  8
0
370
    -3
100
AcDbLine
 10
57.89988784886737
 20
25.00991106406764
 30
0.0
 11
57.90320000000065
 21
25.00991106406764
 31
0.0
  0
LINE
  5
4E1
330
21
100
AcDbEntity
  8
0
370
    -3
100
AcDbLine
 10
42.62651215113328
 20
25.00991106406764
 30
0.0
 11
42.6232
 21
25.00991106406764
 31
0.0
  0
LINE
  5
4E2
330
21
100
AcDbEntity
  8
0
370
    -3
100
AcDbLine
 10
57.90320000000065
 20
25.00991106406764
 30
0.0
 11
57.90320000000065
 21
25.20991106406746
 31
0.0
  0
LINE
  5
4E3
330
21
100
AcDbEntity
  8
0
370
    -3
100
AcDbLine
 10
57.90320000000065
 20
25.20991106406746
 30
0.0
 11
57.89988784886737
 21
25.20991106406746
 31
0.0
  0
LINE
  5
4E4
330
21
100
AcDbEntity
  8
0
370
    -3
100
AcDbLine
 10
44.21320000000196
 20
25.20991106406746
 30
0.0
 11
44.21320000000196
 21
25.00991106406764
 31
0.0
  0
LINE
  5
4E5
330
21
100
AcDbEntity
  8
0
370
    -3
100
AcDbLine
 10
44.21320000000196
 20
25.20991106406746
 30
0.0
 11
43.99988784886773
 21
25.20991106406746
 31
0.0
  0
LINE
  5
4E6
330
21
100
AcDbEntity
  8
0
370
    -3
100
AcDbLine
 10
49.21320000000014
 20
25.20991106406746
 30
0.0
 11
49.21320000000014
 21
25.00991106406764
 31
0.0
  0
LINE
  5
4E7
330
21
100
AcDbEntity
  8
0
370
    -3
100
AcDbLine
 10
49.42651215113438
 20
25.20991106406746
 30
0.0
 11
49.21320000000014
 21
25.20991106406746
 31
0.0
  0
LINE
  5
4E8
330
21
100
AcDbEntity
  8
0
370
    -3
100
AcDbLine
 10
42.6232
 20
25.00991106406764
 30
0.0
 11
42.6232
 21
25.20991106406746
 31
0.0
  0
LINE
  5
4E9
330
21
100
AcDbEntity
  8
0
370
    -3
100
AcDbLine
 10
42.6232
 20
25.20991106406746
 30
0.0
 11
42.62651215113328
 21
25.20991106406746
 31
0.0
  0
LINE
  5
4EA
330
21
100
AcDbEntity
  8
0
370
    -3
100
AcDbLine
 10
56.31320000000051
 20
25.20991106406746
 30
0.0
 11
56.31320000000051
 21
25.00991106406764
 31
0.0
  0
LINE
  5
4EB
330
21
100
AcDbEntity
  8
0
370
    -3
100
AcDbLine
 10
56.31320000000051
 20
25.20991106406746
 30
0.0
 11
56.52651215113474
 21
25.20991106406746
 31
0.0
  0
LINE
  5
4EC
330
21
100
AcDbEntity
  8
0
370
    -3
100
AcDbLine
 10
51.31320000000051
 20
25.20991106406746
 30
0.0
 11
51.31320000000051
 21
25.00991106406764
 31
0.0
  0
LINE
  5
4ED
330
21
100
AcDbEntity
  8
0
370
    -3
100
AcDbLine
 10
51.09988784886809
 20
25.20991106406746
 30
0.0
 11
51.31320000000051
 21
25.20991106406746
 31
0.0
  0
LINE
  5
4EE
330
21
100
AcDbEntity
  8
0
370
    -3
100
AcDbLine
 10
49.21320000000014
 20
25.20991106406746
 30
0.0
 11
44.21320000000196
 21
25.20991106406746
 31
0.0
  0
LINE
  5
4EF
330
21
100
AcDbEntity
  8
0
370
    -3
100
AcDbLine
 10
51.31320000000051
 20
25.20991106406746
 30
0.0
 11
56.31320000000051
 21
25.20991106406746
 31
0.0
  0
LINE
  5
4F0
330
21
100
AcDbEntity
  8
0
370
    -3
100
AcDbLine
 10
57.99856256526255
 20
24.94001058476942
 30
0.0
 11
58.18928769578997
 21
25.00020962617327
 31
0.0
  0
ARC
  5
4F1
330
21
100
AcDbEntity
  8
0
370
    -3
100
AcDbCircle
 10
57.90320000000065
 20
24.90991106406773
 30
0.0
 40
0.3
100
AcDbArc
 50
3.711181123793854
 51
17.51738736284863
  0
ARC
  5
4F2
330
21
100
AcDbEntity
  8
0
370
    -3
100
AcDbCircle
 10
42.6232
 20
24.90991106406773
 30
0.0
 40
0.3
100
AcDbArc
 50
162.4826126370685
 51
176.2888245692925
  0
LINE
  5
4F3
330
21
100
AcDbEntity
  8
0
370
    -3
100
AcDbLine
 10
42.5278374347381
 20
24.94001058476942
 30
0.0
 11
42.3371123042125
 21
25.00020962617327
 31
0.0
  0
ARC
  5
4F4
330
21
100
AcDbEntity
  8
0
370
    -3
100
AcDbCircle
 10
57.90320000000065
 20
24.90991106406773
 30
0.0
 40
0.1
100
AcDbArc
 50
3.711181123707371
 51
17.51738736266124
  0
ARC
  5
4F5
330
21
100
AcDbEntity
  8
0
370
    -3
100
AcDbCircle
 10
42.6232
 20
24.90991106406773
 30
0.0
 40
0.1
100
AcDbArc
 50
162.4826126365281
 51
176.2888245693149
  0
LINE
  5
4F6
330
21
100
AcDbEntity
  8
0
370
    -3
100
AcDbLine
 10
58.20319999999992
 20
12.27953496894361
 30
0.0
 11
58.20319999999992
 21
3.669911064067492
 31
0.0
  0
LINE
  5
4F7
330
21
100
AcDbEntity
  8
0
370
    -3
100
AcDbLine
 10
58.20319999999992
 20
12.54028715919139
 30
0.0
 11
58.20319999999992
 21
12.27953496894361
 31
0.0
  0
ARC
  5
4F8
330
21
100
AcDbEntity
  8
0
370
    -3
100
AcDbCircle
 10
42.6232
 20
3.669911064067492
 30
0.0
 40
0.1
100
AcDbArc
 50
180.0
 51
270.0
  0
LINE
  5
4F9
330
21
100
AcDbEntity
  8
0
370
    -3
100
AcDbLine
 10
58.00320000000102
 20
12.40991106406773
 30
0.0
 11
58.00320000000102
 21
12.27953496894361
 31
0.0
  0
LINE
  5
4FA
330
21
100
AcDbEntity
  8
0
370
    -3
100
AcDbLine
 10
58.00320000000102
 20
12.27953496894361
 30
0.0
 11
58.00320000000102
 21
3.669911064067492
 31
0.0
  0
ARC
  5
4FB
330
21
100
AcDbEntity
  8
0
370
    -3
100
AcDbCircle
 10
57.90320000000065
 20
3.669911064067492
 30
0.0
 40
0.3
100
AcDbArc
 50
270.0
 51
0.0
  0
LINE
  5
4FC
330
21
100
AcDbEntity
  8
0
370
    -3
100
AcDbLine
 10
58.20319999999992
 20
12.27953496894361
 30
0.0
 11
58.00320000000102
 21
12.27953496894361
 31
0.0
  0
ARC
  5
4FD
330
21
100
AcDbEntity
  8
0
370
    -3
100
AcDbCircle
 10
42.6232
 20
3.669911064067492
 30
0.0
 40
0.3
100
AcDbArc
 50
180.0
 51
270.0
  0
ARC
  5
4FE
330
21
100
AcDbEntity
  8
0
370
    -3
100
AcDbCircle
 10
57.90320000000065
 20
3.669911064067492
 30
0.0
 40
0.1
100
AcDbArc
 50
270.0
 51
0.0
  0
LINE
  5
4FF
330
21
100
AcDbEntity
  8
0
370
    -3
100
AcDbLine
 10
42.52319999999963
 20
3.669911064067492
 30
0.0
 11
42.52319999999963
 21
12.27953496894361
 31
0.0
  0
LINE
  5
500
330
21
100
AcDbEntity
  8
0
370
    -3
100
AcDbLine
 10
42.52319999999963
 20
12.27953496894361
 30
0.0
 11
42.52319999999963
 21
12.40991106406773
 31
0.0
  0
LINE
  5
501
330
21
100
AcDbEntity
  8
0
370
    -3
100
AcDbLine
 10
42.32320000000072
 20
12.27953496894361
 30
0.0
 11
42.52319999999963
 21
12.27953496894361
 31
0.0
  0
LINE
  5
502
330
21
100
AcDbEntity
  8
0
370
    -3
100
AcDbLine
 10
42.32320000000072
 20
12.27953496894361
 30
0.0
 11
42.32320000000072
 21
12.54028715919139
 31
0.0
  0
LINE
  5
503
330
21
100
AcDbEntity
  8
0
370
    -3
100
AcDbLine
 10
42.32320000000072
 20
3.669911064067492
 30
0.0
 11
42.32320000000072
 21
12.27953496894361
 31
0.0
  0
LINE
  5
504
330
21
100
AcDbEntity
  8
0
370
    -3
100
AcDbLine
 10
58.00299030059614
 20
24.91638376883611
 30
0.0
 11
58.20257090178711
 21
24.92932917837334
 31
0.0
  0
LINE
  5
505
330
21
100
AcDbEntity
  8
0
370
    -3
100
AcDbLine
 10
42.52340969876241
 20
24.9163837589208
 30
0.0
 11
42.32382909628359
 21
24.92932914862695
 31
0.0
  0
LINE
  5
506
330
21
100
AcDbEntity
  8
0
370
    -3
100
AcDbLine
 10
42.52319999999963
 20
24.90991106406773
 30
0.0
 11
42.32320000000072
 21
24.90991106406773
 31
0.0
  0
LINE
  5
507
330
21
100
AcDbEntity
  8
0
370
    -3
100
AcDbLine
 10
58.00320000000102
 20
24.90991106406773
 30
0.0
 11
58.20319999999992
 21
24.90991106406773
 31
0.0
  0
LINE
  5
508
330
21
100
AcDbEntity
  8
0
370
    -3
100
AcDbLine
 10
42.32320000000072
 20
24.77953496894361
 30
0.0
 11
42.32320000000072
 21
24.79642561159835
 31
0.0
  0
LINE
  5
509
330
21
100
AcDbEntity
  8
0
370
    -3
100
AcDbLine
 10
42.32320000000072
 20
24.79642561159835
 30
0.0
 11
42.32320000000072
 21
24.90991106406773
 31
0.0
  0
LINE
  5
50A
330
21
100
AcDbEntity
  8
0
370
    -3
100
AcDbLine
 10
58.00320000000102
 20
24.90991106406773
 30
0.0
 11
58.00320000000102
 21
24.84294891348145
 31
0.0
  0
LINE
  5
50B
330
21
100
AcDbEntity
  8
0
370
    -3
100
AcDbLine
 10
42.52319999999963
 20
24.84295162150875
 30
0.0
 11
42.52319999999963
 21
24.90991106406773
 31
0.0
  0
LINE
  5
50C
330
21
100
AcDbEntity
  8
0
370
    -3
100
AcDbLine
 10
58.20319999999992
 20
24.90991106406773
 30
0.0
 11
58.20319999999992
 21
24.79642544483431
 31
0.0
  0
LINE
  5
50D
330
21
100
AcDbEntity
  8
0
370
    -3
100
AcDbLine
 10
58.20319999999992
 20
24.79642544483431
 30
0.0
 11
58.20319999999992
 21
24.77953496894361
 31
0.0
  0
SPLINE
  5
50E
330
21
100
AcDbEntity
  8
0
370
    -3
100
AcDbSpline
210
0.0
220
0.0
230
1.0
 70
     8
 71
     3
 72
    12
 73
     8
 74
     0
 42
0.000000001
 43
0.00000001
 40
0.0
 40
0.0
 40
0.0
 40
0.0
 40
0.2598924209267252
 40
0.4007242863958876
 40
0.5453915643431099
 40
0.768955845279804
 40
1.0
 40
1.0
 40
1.0
 40
1.0
 10
86.54947036518206
 20
4.611798294101845
 30
0.0000000000000311
 10
86.57907889381204
 20
4.474153421173014
 30
0.0000000000000311
 10
86.62473184692135
 20
4.261920823993933
 30
0.0000000000000311
 10
86.66524236736586
 20
3.969254653414282
 30
0.0000000000000311
 10
86.69485383291612
 20
3.695195730322212
 30
0.0000000000000312
 10
86.71750398580298
 20
3.371294615685201
 30
0.0000000000000312
 10
86.72067910174701
 20
3.125115039066714
 30
0.0000000000000312
 10
86.72229278051418
 20
2.999999999995453
 30
0.0000000000000312
  0
SPLINE
  5
50F
330
21
100
AcDbEntity
  8
0
370
    -3
100
AcDbSpline
210
0.0
220
0.0
230
1.0
 70
     8
 71
     3
 72
    12
 73
     8
 74
     0
 42
0.000000001
 43
0.00000001
 40
0.0
 40
0.0
 40
0.0
 40
0.0
 40
0.2598924209266564
 40
0.4007242863957728
 40
0.5453915643429653
 40
0.7689558452797224
 40
1.0
 40
1.0
 40
1.0
 40
1.0
 10
-87.04947036520207
 20
70.38820170589634
 30
-0.0000000000000094
 10
-87.07907889383023
 20
70.52584657882517
 30
-0.0000000000000094
 10
-87.12473184693954
 20
70.73807917600425
 30
-0.0000000000000095
 10
-87.16524236738405
 20
71.03074534658435
 30
-0.0000000000000095
 10
-87.19485383293431
 20
71.30480426967597
 30
-0.0000000000000095
 10
-87.21750398582299
 20
71.62870538431298
 30
-0.0000000000000095
 10
-87.22067910176702
 20
71.87488496093192
 30
-0.0000000000000095
 10
-87.22229278053237
 20
72.00000000000318
 30
-0.0000000000000095
  0
LINE
  5
510
330
21
100
AcDbEntity
  8
0
370
    -3
100
AcDbLine
 10
87.36728067127297
 20
29.84522454437911
 30
0.0
 11
87.35415375001503
 21
29.85284315119179
 31
0.0
  0
SPLINE
  5
511
330
21
100
AcDbEntity
  8
0
370
    -3
100
AcDbSpline
210
0.0
220
0.0
230
1.0
 70
     8
 71
     3
 72
     9
 73
     5
 74
     0
 42
0.000000001
 43
0.00000001
 40
0.0
 40
0.0
 40
0.0
 40
0.0
 40
0.4152628315926866
 40
1.0
 40
1.0
 40
1.0
 40
1.0
 10
87.35415375001503
 20
29.85284315119225
 30
0.0000000000000298
 10
87.34347507696475
 20
29.85905439959515
 30
0.0000000000000298
 10
87.31775962102074
 20
29.8740117902662
 30
0.0000000000000298
 10
87.29210041804254
 20
29.88906550128695
 30
0.0000000000000298
 10
87.27709652835074
 20
29.8978679656434
 30
0.0000000000000298
  0
SPLINE
  5
512
330
21
100
AcDbEntity
  8
0
370
    -3
100
AcDbSpline
210
0.0
220
0.0
230
1.0
 70
     8
 71
     3
 72
    17
 73
    13
 74
     0
 42
0.000000001
 43
0.00000001
 40
0.0
 40
0.0
 40
0.0
 40
0.0
 40
0.0878885220547925
 40
0.1767233508628772
 40
0.2665044656937108
 40
0.3572318455957498
 40
0.4489054693967966
 40
0.5415253157038312
 40
0.6485364070064354
 40
0.7606201611745922
 40
0.8777745716819444
 40
1.0
 40
1.0
 40
1.0
 40
1.0
 10
87.37419739060533
 20
30.13815714173916
 30
0.0000000000000298
 10
87.37818516315383
 20
30.13012227383706
 30
0.0000000000000298
 10
87.38620364509734
 20
30.11396602560171
 30
0.0000000000000298
 10
87.39545571426788
 20
30.08834763822961
 30
0.0000000000000298
 10
87.40257464874776
 20
30.06178377309743
 30
0.0000000000000298
 10
87.40722527853723
 20
30.03437209333788
 30
0.0000000000000298
 10
87.40934349610507
 20
30.00636123683762
 30
0.0000000000000298
 10
87.40878493957644
 20
29.97661358368214
 30
0.0000000000000298
 10
87.40496905335021
 20
29.94497977887568
 30
0.0000000000000298
 10
87.3970028697695
 20
29.91156503074126
 30
0.0000000000000298
 10
87.38492163152478
 20
29.87767505813326
 30
0.0000000000000298
 10
87.37324702381557
 20
29.85619583706284
 30
0.0000000000000298
 10
87.36728606263023
 20
29.84522871882882
 30
0.0000000000000298
  0
LINE
  5
513
330
21
100
AcDbEntity
  8
0
370
    -3
100
AcDbLine
 10
87.87669662417647
 20
53.15999999999804
 30
0.0
 11
87.65808678046596
 21
53.15999999999804
 31
0.0
  0
LINE
  5
514
330
21
100
AcDbEntity
  8
0
370
    -3
100
AcDbLine
 10
87.65808678046596
 20
59.15999999999804
 30
0.0
 11
87.87669662417647
 21
59.15999999999804
 31
0.0
  0
LINE
  5
515
330
21
100
AcDbEntity
  8
0
370
    -3
100
AcDbLine
 10
87.26363818829486
 20
74.92213203435495
 30
0.0
 11
87.382700021235
 21
75.12213203436204
 31
0.0
  0
SPLINE
  5
516
330
21
100
AcDbEntity
  8
0
370
    -3
100
AcDbSpline
210
0.0
220
0.0
230
1.0
 70
     8
 71
     3
 72
    17
 73
    13
 74
     0
 42
0.000000001
 43
0.00000001
 40
0.0
 40
0.0
 40
0.0
 40
0.0
 40
0.0878885220942787
 40
0.1767233509259016
 40
0.2665044657644919
 40
0.3572318456585274
 40
0.4489054694357213
 40
0.5415253157029889
 40
0.6485364070708822
 40
0.7606201612608234
 40
0.8777745717466818
 40
1.0
 40
1.0
 40
1.0
 40
1.0
 10
-87.87419739060715
 20
74.68184285825828
 30
-0.0000000000000098
 10
-87.87818516315747
 20
74.68987772616401
 30
-0.0000000000000098
 10
-87.8862036451028
 20
74.70603397440527
 30
-0.0000000000000098
 10
-87.89545571427698
 20
74.73165236178556
 30
-0.0000000000000098
 10
-87.90257464875322
 20
74.75821622692047
 30
-0.0000000000000098
 10
-87.90722527854268
 20
74.7856279066782
 30
-0.0000000000000098
 10
-87.9093434961087
 20
74.81363876317073
 30
-0.0000000000000098
 10
-87.90878493957825
 20
74.84338641632667
 30
-0.0000000000000098
 10
-87.90496905335021
 20
74.87502022113858
 30
-0.0000000000000099
 10
-87.89700286976586
 20
74.90843496927891
 30
-0.0000000000000099
 10
-87.88492163151932
 20
74.94232494187963
 30
-0.0000000000000099
 10
-87.87324702381557
 20
74.96380416294232
 30
-0.0000000000000098
 10
-87.86728606263205
 20
74.97477128117043
 30
-0.0000000000000098
  0
LINE
  5
517
330
21
100
AcDbEntity
  8
0
370
    -3
100
AcDbLine
 10
-87.86728067127478
 20
74.9747754556206
 30
0.0
 11
-87.85415375001867
 21
74.96715684880746
 31
0.0
  0
SPLINE
  5
518
330
21
100
AcDbEntity
  8
0
370
    -3
100
AcDbSpline
210
0.0
220
0.0
230
1.0
 70
     8
 71
     3
 72
     9
 73
     5
 74
     0
 42
0.000000001
 43
0.00000001
 40
0.0
 40
0.0
 40
0.0
 40
0.0
 40
0.4152628315926534
 40
1.0
 40
1.0
 40
1.0
 40
1.0
 10
-87.85415375001867
 20
74.96715684880746
 30
-0.0000000000000098
 10
-87.84347507696657
 20
74.9609456004041
 30
-0.0000000000000098
 10
-87.81775962102256
 20
74.94598820973306
 30
-0.0000000000000098
 10
-87.79210041804618
 20
74.9309344987123
 30
-0.0000000000000098
 10
-87.77709652835256
 20
74.92213203435585
 30
-0.0000000000000098
  0
LINE
  5
519
330
21
100
AcDbEntity
  8
0
370
    -3
100
AcDbLine
 10
-88.37669662418011
 20
51.66000000000076
 30
0.0
 11
-88.15808678046778
 21
51.66000000000076
 31
0.0
  0
LINE
  5
51A
330
21
100
AcDbEntity
  8
0
370
    -3
100
AcDbLine
 10
-88.15808678046778
 20
45.66000000000167
 30
0.0
 11
-88.37669662418011
 21
45.66000000000167
 31
0.0
  0
LINE
  5
51B
330
21
100
AcDbEntity
  8
0
370
    -3
100
AcDbLine
 10
-87.76363818829668
 20
29.89786796564385
 30
0.0
 11
-87.88270002123681
 21
29.69786796563676
 31
0.0
  0
SPLINE
  5
51C
330
21
100
AcDbEntity
  8
0
370
    -3
100
AcDbSpline
210
0.0
220
0.0
230
1.0
 70
     8
 71
     3
 72
    13
 73
     9
 74
     0
 42
0.000000001
 43
0.00000001
 40
0.0
 40
0.0
 40
0.0
 40
0.0
 40
0.2080241320798868
 40
0.3975356300673974
 40
0.5687557280571869
 40
0.7234452366446343
 40
0.8652878322164029
 40
1.0
 40
1.0
 40
1.0
 40
1.0
 10
42.41106796564418
 20
12.40991106406773
 30
0.0000000000000213
 10
42.40231398850301
 20
12.41700646595018
 30
0.0000000000000213
 10
42.38558507449125
 20
12.43056583057705
 30
0.0000000000000213
 10
42.36367800879088
 20
12.45228062638989
 30
0.0000000000000213
 10
42.34599394158613
 20
12.47398218859962
 30
0.0000000000000213
 10
42.33311407625479
 20
12.495865408996
 30
0.0000000000000213
 10
42.32477685925551
 20
12.51797533997797
 30
0.0000000000000213
 10
42.32371650670757
 20
12.5329788314225
 30
0.0000000000000212
 10
42.32320000000072
 20
12.54028715919185
 30
0.0000000000000212
  0
SPLINE
  5
51D
330
21
100
AcDbEntity
  8
0
370
    -3
100
AcDbSpline
210
0.0
220
0.0
230
1.0
 70
     8
 71
     3
 72
     9
 73
     5
 74
     0
 42
0.000000001
 43
0.00000001
 40
0.0
 40
0.0
 40
0.0
 40
0.0
 40
0.5591102492590364
 40
1.0
 40
1.0
 40
1.0
 40
1.0
 10
42.32320000000072
 20
24.77953496894361
 30
0.0000000000000206
 10
42.32323315072972
 20
24.78154406645899
 30
0.0000000000000206
 10
42.32329244266475
 20
24.78513744990687
 30
0.0000000000000206
 10
42.32366489000196
 20
24.78871142861362
 30
0.0000000000000206
 10
42.32382909821354
 20
24.79028715919503
 30
0.0000000000000206
  0
SPLINE
  5
51E
330
21
100
AcDbEntity
  8
0
370
    -3
100
AcDbSpline
210
0.0
220
0.0
230
1.0
 70
     8
 71
     3
 72
    19
 73
    15
 74
     0
 42
0.000000001
 43
0.00000001
 40
0.0
 40
0.0
 40
0.0
 40
0.0
 40
0.0439124604588584
 40
0.100954066448536
 40
0.1697124463841141
 40
0.2486567250599436
 40
0.3362382038795743
 40
0.4309512247373846
 40
0.5293080896180425
 40
0.6276033955370243
 40
0.7244893343028295
 40
0.8190856261611772
 40
0.9109437364322155
 40
1.0
 40
1.0
 40
1.0
 40
1.0
 10
42.3371123042125
 20
24.79028715919503
 30
0.0000000000000206
 10
42.3416801407584
 20
24.79049468614767
 30
0.0000000000000206
 10
42.3521815262302
 20
24.79097178739676
 30
0.0000000000000206
 10
42.36965108742515
 20
24.79375541842728
 30
0.0000000000000206
 10
42.39053743061049
 20
24.79795540874784
 30
0.0000000000000206
 10
42.41430169682462
 20
24.80389282421993
 30
0.0000000000000206
 10
42.44041301900506
 20
24.81147615519785
 30
0.0000000000000206
 10
42.46813822953118
 20
24.8206776742586
 30
0.0000000000000206
 10
42.49654542488679
 20
24.83130093197133
 30
0.0000000000000206
 10
42.52465598669005
 20
24.84328240360628
 30
0.0000000000000206
 10
42.55175934348154
 20
24.85654378298068
 30
0.0000000000000206
 10
42.5773925518788
 20
24.87114148954151
 30
0.0000000000000206
 10
42.6013947569736
 20
24.88690179361583
 30
0.0000000000000206
 10
42.61600701972384
 20
24.89878900386702
 30
0.0000000000000206
 10
42.6232
 20
24.90464055953271
 30
0.0000000000000206
  0
SPLINE
  5
51F
330
21
100
AcDbEntity
  8
0
370
    -3
100
AcDbSpline
210
0.0
220
0.0
230
1.0
 70
     8
 71
     3
 72
    19
 73
    15
 74
     0
 42
0.000000001
 43
0.00000001
 40
0.0
 40
0.0
 40
0.0
 40
0.0
 40
0.0890722480486562
 40
0.1809397218282363
 40
0.2755387740845777
 40
0.3724211485589681
 40
0.4707071554465438
 40
0.5690499465857339
 40
0.663779806900806
 40
0.751368860212702
 40
0.8303127685322313
 40
0.8990648622774912
 40
0.9560969632954461
 40
1.0
 40
1.0
 40
1.0
 40
1.0
 10
57.90320000000065
 20
24.90464055953271
 30
0.0000000000000239
 10
57.91039423509756
 20
24.89878790390139
 30
0.0000000000000239
 10
57.92500847158044
 20
24.88689892719822
 30
0.0000000000000239
 10
57.94901284833759
 20
24.87113657983537
 30
0.0000000000000239
 10
57.97464669846158
 20
24.8565381496287
 30
0.0000000000000239
 10
58.00174919529672
 20
24.84327735543502
 30
0.0000000000000239
 10
58.02985750540574
 20
24.83129766921411
 30
0.0000000000000239
 10
58.05826481131044
 20
24.82067657419566
 30
0.0000000000000239
 10
58.08599166973909
 20
24.81147659465933
 30
0.0000000000000239
 10
58.11210555573416
 20
24.8038931228607
 30
0.0000000000000239
 10
58.13586990773365
 20
24.79795562867275
 30
0.0000000000000239
 10
58.1567545210637
 20
24.79375555599381
 30
0.0000000000000239
 10
58.1742214201131
 20
24.79097181944371
 30
0.0000000000000239
 10
58.18472083862798
 20
24.79049469194069
 30
0.0000000000000239
 10
58.18928769578815
 20
24.79028715919503
 30
0.0000000000000239
  0
SPLINE
  5
520
330
21
100
AcDbEntity
  8
0
370
    -3
100
AcDbSpline
210
0.0
220
0.0
230
1.0
 70
     8
 71
     3
 72
    13
 73
     9
 74
     0
 42
0.000000001
 43
0.00000001
 40
0.0
 40
0.0
 40
0.0
 40
0.0
 40
0.1347121677835948
 40
0.2765547633553281
 40
0.431244271942839
 40
0.602464369932626
 40
0.7919758679200252
 40
1.0
 40
1.0
 40
1.0
 40
1.0
 10
58.20319999999992
 20
12.54028715919139
 30
0.0000000000000246
 10
58.20268349329308
 20
12.53297883142204
 30
0.0000000000000246
 10
58.20162314074514
 20
12.51797533997797
 30
0.0000000000000246
 10
58.19328592374586
 20
12.495865408996
 30
0.0000000000000246
 10
58.18040605841452
 20
12.47398218859962
 30
0.0000000000000246
 10
58.16272199120976
 20
12.45228062638989
 30
0.0000000000000246
 10
58.1408149255094
 20
12.43056583057705
 30
0.0000000000000246
 10
58.12408601149764
 20
12.41700646595018
 30
0.0000000000000246
 10
58.11533203435647
 20
12.40991106406773
 30
0.0000000000000246
  0
SPLINE
  5
521
330
21
100
AcDbEntity
  8
0
370
    -3
100
AcDbSpline
210
0.0
220
0.0
230
1.0
 70
     8
 71
     3
 72
     9
 73
     5
 74
     0
 42
0.000000001
 43
0.00000001
 40
0.0
 40
0.0
 40
0.0
 40
0.0
 40
0.5607892375344719
 40
1.0
 40
1.0
 40
1.0
 40
1.0
 10
58.20257090371706
 20
24.79028715919503
 30
0.0000000000000239
 10
58.20277285962766
 20
24.78828189073602
 30
0.0000000000000239
 10
58.20313298763358
 20
24.78470609376154
 30
0.0000000000000239
 10
58.20317954951861
 20
24.78111306558776
 30
0.0000000000000239
 10
58.20319999999992
 20
24.77953496894361
 30
0.0000000000000239
  0
SPLINE
  5
522
330
21
100
AcDbEntity
  8
0
370
    -3
100
AcDbSpline
210
0.0
220
0.0
230
1.0
 70
     8
 71
     3
 72
    15
 73
    11
 74
     0
 42
0.000000001
 43
0.00000001
 40
0.0
 40
0.0
 40
0.0
 40
0.0
 40
0.2012522068140842
 40
0.3756388474637387
 40
0.523780919360659
 40
0.6474102027784197
 40
0.7498726000191991
 40
0.8368964492014994
 40
0.9170105023783454
 40
1.0
 40
1.0
 40
1.0
 40
1.0
 10
56.56320000000051
 20
25.12204309843037
 30
0.0000000000000236
 10
56.56310598000346
 20
25.12906776058253
 30
0.0000000000000236
 10
56.56293049092892
 20
25.14217934845738
 30
0.0000000000000236
 10
56.56126713758749
 20
25.16040313182475
 30
0.0000000000000236
 10
56.55853369699798
 20
25.17575874393515
 30
0.0000000000000236
 10
56.55464406707688
 20
25.18827139428822
 30
0.0000000000000236
 10
56.54954636465663
 20
25.1980427721187
 30
0.0000000000000236
 10
56.5430743475863
 20
25.20503987258144
 30
0.0000000000000236
 10
56.53515513434468
 20
25.2092721512804
 30
0.0000000000000236
 10
56.52942680816886
 20
25.2096956047053
 30
0.0000000000000236
 10
56.52651215113474
 20
25.20991106406746
 30
0.0000000000000236
  0
SPLINE
  5
523
330
21
100
AcDbEntity
  8
0
370
    -3
100
AcDbSpline
210
0.0
220
0.0
230
1.0
 70
     8
 71
     3
 72
    15
 73
    11
 74
     0
 42
0.000000001
 43
0.00000001
 40
0.0
 40
0.0
 40
0.0
 40
0.0
 40
0.1327624747393984
 40
0.2655693076614709
 40
0.397460888053376
 40
0.5273254883398021
 40
0.6539154551167788
 40
0.7758679324078671
 40
0.8917313672054628
 40
1.0
 40
1.0
 40
1.0
 40
1.0
 10
56.52651215112928
 20
24.90991106406773
 30
0.0000000000000236
 10
56.52946034034539
 20
24.91901190615772
 30
0.0000000000000236
 10
56.53535770382041
 20
24.93721663108226
 30
0.0000000000000236
 10
56.54271670073831
 20
24.96490316859672
 30
0.0000000000000236
 10
56.54902069660238
 20
24.99262740100812
 30
0.0000000000000236
 10
56.55415918058134
 20
25.02013738638516
 30
0.0000000000000236
 10
56.55817337257395
 20
25.04711010265464
 30
0.0000000000000236
 10
56.56102184746851
 20
25.07321342140995
 30
0.0000000000000236
 10
56.56283624846947
 20
25.09809356876622
 30
0.0000000000000236
 10
56.56308151986195
 20
25.11424232414947
 30
0.0000000000000236
 10
56.56320000000051
 20
25.12204309842264
 30
0.0000000000000236
  0
SPLINE
  5
524
330
21
100
AcDbEntity
  8
0
370
    -3
100
AcDbSpline
210
0.0
220
0.0
230
1.0
 70
     8
 71
     3
 72
    15
 73
    11
 74
     0
 42
0.000000001
 43
0.00000001
 40
0.0
 40
0.0
 40
0.0
 40
0.0
 40
0.0830050421125912
 40
0.1631332124115628
 40
0.2501702779043981
 40
0.3526428805472126
 40
0.4762761584782356
 40
0.6244126950714836
 40
0.7987811899320727
 40
1.0
 40
1.0
 40
1.0
 40
1.0
 10
57.89988784886737
 20
25.20991106406746
 30
0.0000000000000238
 10
57.89697260165303
 20
25.20969551318467
 30
0.0000000000000238
 10
57.89124314677974
 20
25.2092718821973
 30
0.0000000000000238
 10
57.88332269935017
 20
25.20503832544455
 30
0.0000000000000238
 10
57.87685003224215
 20
25.19803987338673
 30
0.0000000000000238
 10
57.87175212295551
 20
25.18826734728555
 30
0.0000000000000238
 10
57.86786274129008
 20
25.17575410797872
 30
0.0000000000000238
 10
57.86513002488573
 20
25.16039884098109
 30
0.0000000000000238
 10
57.86346785305614
 20
25.14217668705669
 30
0.0000000000000238
 10
57.86329344053775
 20
25.12906670071243
 30
0.0000000000000238
 10
57.8632000000016
 20
25.12204309842946
 30
0.0000000000000238
  0
SPLINE
  5
525
330
21
100
AcDbEntity
  8
0
370
    -3
100
AcDbSpline
210
0.0
220
0.0
230
1.0
 70
     8
 71
     3
 72
    15
 73
    11
 74
     0
 42
0.000000001
 43
0.00000001
 40
0.0
 40
0.0
 40
0.0
 40
0.0
 40
0.2012522068141767
 40
0.3756388474636631
 40
0.5237809193606541
 40
0.6474102027784329
 40
0.7498726000191974
 40
0.8368964492015394
 40
0.9170105023783057
 40
1.0
 40
1.0
 40
1.0
 40
1.0
 10
42.66320000000087
 20
25.12204309843037
 30
0.0000000000000206
 10
42.66310598000382
 20
25.12906776058253
 30
0.0000000000000206
 10
42.66293049092928
 20
25.14217934845738
 30
0.0000000000000206
 10
42.66126713758786
 20
25.16040313182521
 30
0.0000000000000206
 10
42.65853369699835
 20
25.17575874393515
 30
0.0000000000000206
 10
42.65464406707724
 20
25.18827139428822
 30
0.0000000000000206
 10
42.64954636465518
 20
25.1980427721187
 30
0.0000000000000206
 10
42.64307434758484
 20
25.20503987258144
 30
0.0000000000000206
 10
42.63515513434504
 20
25.2092721512804
 30
0.0000000000000206
 10
42.62942680816923
 20
25.2096956047053
 30
0.0000000000000206
 10
42.6265121511351
 20
25.20991106406746
 30
0.0000000000000206
  0
SPLINE
  5
526
330
21
100
AcDbEntity
  8
0
370
    -3
100
AcDbSpline
210
0.0
220
0.0
230
1.0
 70
     8
 71
     3
 72
    15
 73
    11
 74
     0
 42
0.000000001
 43
0.00000001
 40
0.0
 40
0.0
 40
0.0
 40
0.0
 40
0.1327624747393045
 40
0.265569307661318
 40
0.3974608880531815
 40
0.5273254883396062
 40
0.6539154551166149
 40
0.7758679324076976
 40
0.8917313672054097
 40
1.0
 40
1.0
 40
1.0
 40
1.0
 10
42.62651215112965
 20
24.90991106406773
 30
0.0000000000000206
 10
42.62946034034576
 20
24.91901190615772
 30
0.0000000000000206
 10
42.63535770381895
 20
24.93721663108226
 30
0.0000000000000206
 10
42.64271670073686
 20
24.96490316859672
 30
0.0000000000000206
 10
42.64902069660275
 20
24.99262740100812
 30
0.0000000000000206
 10
42.6541591805817
 20
25.02013738638516
 30
0.0000000000000206
 10
42.65817337257431
 20
25.04711010265464
 30
0.0000000000000206
 10
42.66102184746887
 20
25.07321342140995
 30
0.0000000000000206
 10
42.66283624846801
 20
25.09809356876622
 30
0.0000000000000206
 10
42.66308151986232
 20
25.11424232414947
 30
0.0000000000000206
 10
42.66320000000087
 20
25.12204309842264
 30
0.0000000000000206
  0
SPLINE
  5
527
330
21
100
AcDbEntity
  8
0
370
    -3
100
AcDbSpline
210
0.0
220
0.0
230
1.0
 70
     8
 71
     3
 72
    15
 73
    11
 74
     0
 42
0.000000001
 43
0.00000001
 40
0.0
 40
0.0
 40
0.0
 40
0.0
 40
0.2012522068140705
 40
0.3756388474637117
 40
0.5237809193605919
 40
0.6474102027783868
 40
0.7498726000191648
 40
0.8368964492015181
 40
0.917010502378295
 40
1.0
 40
1.0
 40
1.0
 40
1.0
 10
49.46320000000014
 20
25.12204309843037
 30
0.0000000000000221
 10
49.46310598000309
 20
25.12906776058253
 30
0.0000000000000221
 10
49.46293049092856
 20
25.14217934845738
 30
0.0000000000000221
 10
49.46126713758895
 20
25.16040313182475
 30
0.0000000000000221
 10
49.45853369699762
 20
25.17575874393515
 30
0.0000000000000221
 10
49.45464406707652
 20
25.18827139428822
 30
0.0000000000000221
 10
49.44954636465627
 20
25.1980427721187
 30
0.0000000000000221
 10
49.44307434758593
 20
25.20503987258144
 30
0.0000000000000221
 10
49.43515513434613
 20
25.2092721512804
 30
0.0000000000000221
 10
49.4294268081685
 20
25.2096956047053
 30
0.0000000000000221
 10
49.42651215113438
 20
25.20991106406746
 30
0.000000000000022
  0
SPLINE
  5
528
330
21
100
AcDbEntity
  8
0
370
    -3
100
AcDbSpline
210
0.0
220
0.0
230
1.0
 70
     8
 71
     3
 72
    15
 73
    11
 74
     0
 42
0.000000001
 43
0.00000001
 40
0.0
 40
0.0
 40
0.0
 40
0.0
 40
0.1327624747394918
 40
0.2655693076616784
 40
0.3974608880536223
 40
0.5273254883400386
 40
0.6539154551169967
 40
0.7758679324080119
 40
0.891731367205535
 40
1.0
 40
1.0
 40
1.0
 40
1.0
 10
49.42651215112892
 20
24.90991106406773
 30
0.0000000000000221
 10
49.42946034034685
 20
24.91901190615772
 30
0.0000000000000221
 10
49.43535770382005
 20
24.93721663108226
 30
0.0000000000000221
 10
49.44271670073795
 20
24.96490316859672
 30
0.0000000000000221
 10
49.44902069660202
 20
24.99262740100812
 30
0.0000000000000221
 10
49.45415918058097
 20
25.02013738638516
 30
0.0000000000000221
 10
49.45817337257358
 20
25.04711010265464
 30
0.0000000000000221
 10
49.46102184746996
 20
25.07321342140995
 30
0.0000000000000221
 10
49.4628362484691
 20
25.09809356876622
 30
0.0000000000000221
 10
49.46308151986159
 20
25.11424232414947
 30
0.0000000000000221
 10
49.46320000000014
 20
25.12204309842264
 30
0.0000000000000221
  0
SPLINE
  5
529
330
21
100
AcDbEntity
  8
0
370
    -3
100
AcDbSpline
210
0.0
220
0.0
230
1.0
 70
     8
 71
     3
 72
    15
 73
    11
 74
     0
 42
0.000000001
 43
0.00000001
 40
0.0
 40
0.0
 40
0.0
 40
0.0
 40
0.1082870999217094
 40
0.2241664308943629
 40
0.3461303266742438
 40
0.4727257813587568
 40
0.6025889305641915
 40
0.7344715399571539
 40
0.8672617032628661
 40
1.0
 40
1.0
 40
1.0
 40
1.0
 10
51.06320000000051
 20
25.12204309843082
 30
0.0000000000000224
 10
51.06331908292304
 20
25.11424101967214
 30
0.0000000000000224
 10
51.06356559791493
 20
25.09808984238407
 30
0.0000000000000224
 10
51.06538110814654
 20
25.07320653225452
 30
0.0000000000000224
 10
51.06823027468818
 20
25.04710096584222
 30
0.0000000000000224
 10
51.07224465760373
 20
25.02012721144274
 30
0.0000000000000224
 10
51.07738285741289
 20
24.99261759219962
 30
0.0000000000000224
 10
51.08368609428908
 20
24.96489524794333
 30
0.0000000000000224
 10
51.09104384267266
 20
24.9372121490087
 30
0.0000000000000224
 10
51.09694023072552
 20
24.91901024056779
 30
0.0000000000000224
 10
51.09988784887173
 20
24.90991106406773
 30
0.0000000000000224
  0
SPLINE
  5
52A
330
21
100
AcDbEntity
  8
0
370
    -3
100
AcDbSpline
210
0.0
220
0.0
230
1.0
 70
     8
 71
     3
 72
    15
 73
    11
 74
     0
 42
0.000000001
 43
0.00000001
 40
0.0
 40
0.0
 40
0.0
 40
0.0
 40
0.0830050421135129
 40
0.1631332124133928
 40
0.2501702779070232
 40
0.3526428805509993
 40
0.4762761584832976
 40
0.6244126950782248
 40
0.7987811899409224
 40
1.0
 40
1.0
 40
1.0
 40
1.0
 10
51.09988784886809
 20
25.20991106406746
 30
0.0000000000000224
 10
51.09697260165376
 20
25.20969551318467
 30
0.0000000000000224
 10
51.09124314678047
 20
25.2092718821973
 30
0.0000000000000224
 10
51.08332269934908
 20
25.20503832544455
 30
0.0000000000000224
 10
51.07685003224105
 20
25.19803987338673
 30
0.0000000000000224
 10
51.07175212295624
 20
25.18826734728555
 30
0.0000000000000224
 10
51.06786274129081
 20
25.17575410797872
 30
0.0000000000000224
 10
51.06513002488464
 20
25.16039884098109
 30
0.0000000000000224
 10
51.06346785305686
 20
25.14217668705714
 30
0.0000000000000224
 10
51.06329344053847
 20
25.12906670071334
 30
0.0000000000000224
 10
51.06320000000051
 20
25.12204309843082
 30
0.0000000000000224
  0
SPLINE
  5
52B
330
21
100
AcDbEntity
  8
0
370
    -3
100
AcDbSpline
210
0.0
220
0.0
230
1.0
 70
     8
 71
     3
 72
    11
 73
     7
 74
     0
 42
0.000000001
 43
0.00000001
 40
0.0
 40
0.0
 40
0.0
 40
0.0
 40
0.3412415628886029
 40
0.637928498083321
 40
0.8951827126335494
 40
1.0
 40
1.0
 40
1.0
 40
1.0
 10
51.09988784886809
 20
25.00991106406764
 30
0.0000000000000224
 10
51.09698066587771
 20
25.0098249794255
 30
0.0000000000000224
 10
51.09154587984995
 20
25.00966404988958
 30
0.0000000000000224
 10
51.08404031408463
 20
25.00821197996629
 30
0.0000000000000224
 10
51.0787014367088
 20
25.0063889715052
 30
0.0000000000000224
 10
51.07598795453669
 20
25.00492506446517
 30
0.0000000000000224
 10
51.07520241952625
 20
25.0045012731307
 30
0.0000000000000224
  0
SPLINE
  5
52C
330
21
100
AcDbEntity
  8
0
370
    -3
100
AcDbSpline
210
0.0
220
0.0
230
1.0
 70
     8
 71
     3
 72
    15
 73
    11
 74
     0
 42
0.000000001
 43
0.00000001
 40
0.0
 40
0.0
 40
0.0
 40
0.0
 40
0.0830050419700954
 40
0.1631332121396335
 40
0.2501702775111918
 40
0.3526428800605483
 40
0.476276157954795
 40
0.6244126945987994
 40
0.7987811896257251
 40
1.0
 40
1.0
 40
1.0
 40
1.0
 10
43.99988784886773
 20
25.20991106406746
 30
0.0000000000000209
 10
43.99697260165885
 20
25.20969551318558
 30
0.0000000000000209
 10
43.99124314679648
 20
25.20927188220003
 30
0.0000000000000209
 10
43.983322699376
 20
25.20503832545864
 30
0.0000000000000209
 10
43.97685003227525
 20
25.19803987341356
 30
0.0000000000000209
 10
43.97175212299044
 20
25.18826734732238
 30
0.0000000000000209
 10
43.96786274132319
 20
25.17575410802101
 30
0.0000000000000209
 10
43.96513002491156
 20
25.16039884102065
 30
0.0000000000000209
 10
43.96346785307105
 20
25.14217668708125
 30
0.0000000000000209
 10
43.96329344054357
 20
25.12906670072198
 30
0.0000000000000209
 10
43.96320000000014
 20
25.12204309842946
 30
0.0000000000000209
  0
SPLINE
  5
52D
330
21
100
AcDbEntity
  8
0
370
    -3
100
AcDbSpline
210
0.0
220
0.0
230
1.0
 70
     8
 71
     3
 72
    15
 73
    11
 74
     0
 42
0.000000001
 43
0.00000001
 40
0.0
 40
0.0
 40
0.0
 40
0.0
 40
0.1082870999167297
 40
0.2241664308900303
 40
0.3461303266705923
 40
0.4727257813558123
 40
0.6025889305619723
 40
0.734471539955671
 40
0.8672617032621248
 40
1.0
 40
1.0
 40
1.0
 40
1.0
 10
57.8632000000016
 20
25.12204309842946
 30
0.0000000000000238
 10
57.86331908292232
 20
25.11424101967168
 30
0.0000000000000238
 10
57.8635655979142
 20
25.09808984238362
 30
0.0000000000000238
 10
57.86538110814581
 20
25.07320653225452
 30
0.0000000000000238
 10
57.86823027468745
 20
25.04710096584222
 30
0.0000000000000239
 10
57.87224465760301
 20
25.02012721144274
 30
0.0000000000000239
 10
57.87738285741216
 20
24.99261759220008
 30
0.0000000000000239
 10
57.88368609428835
 20
24.96489524794333
 30
0.0000000000000239
 10
57.89104384267375
 20
24.9372121490087
 30
0.0000000000000239
 10
57.89694023072661
 20
24.91901024056779
 30
0.0000000000000239
 10
57.899887848871
 20
24.90991106406773
 30
0.0000000000000239
  0
SPLINE
  5
52E
330
21
100
AcDbEntity
  8
0
370
    -3
100
AcDbSpline
210
0.0
220
0.0
230
1.0
 70
     8
 71
     3
 72
    11
 73
     7
 74
     0
 42
0.000000001
 43
0.00000001
 40
0.0
 40
0.0
 40
0.0
 40
0.0
 40
0.341241564186286
 40
0.6379285001026073
 40
0.8951827147914596
 40
1.0
 40
1.0
 40
1.0
 40
1.0
 10
57.89988784886737
 20
25.00991106406764
 30
0.0000000000000239
 10
57.89698066586607
 20
25.00982497942505
 30
0.0000000000000239
 10
57.89154587982011
 20
25.00966404988776
 30
0.0000000000000239
 10
57.88404031403843
 20
25.0082119799572
 30
0.0000000000000239
 10
57.87870143667533
 20
25.00638897149565
 30
0.0000000000000239
 10
57.87598795451595
 20
25.00492506446426
 30
0.0000000000000239
 10
57.8752024195237
 20
25.00450127313889
 30
0.0000000000000239
  0
SPLINE
  5
52F
330
21
100
AcDbEntity
  8
0
370
    -3
100
AcDbSpline
210
0.0
220
0.0
230
1.0
 70
     8
 71
     3
 72
    15
 73
    11
 74
     0
 42
0.000000001
 43
0.00000001
 40
0.0
 40
0.0
 40
0.0
 40
0.0
 40
0.1082870997524753
 40
0.2241664305844219
 40
0.346130326263327
 40
0.4727257808995785
 40
0.6025889301185662
 40
0.7344715395920131
 40
0.8672617030468783
 40
1.0
 40
1.0
 40
1.0
 40
1.0
 10
43.96320000000014
 20
25.12204309842946
 30
0.0000000000000209
 10
43.96331908291722
 20
25.11424101968305
 30
0.0000000000000209
 10
43.9635655978982
 20
25.09808984241681
 30
0.0000000000000209
 10
43.96538110811889
 20
25.07320653231591
 30
0.0000000000000209
 10
43.96823027465507
 20
25.04710096592316
 30
0.0000000000000209
 10
43.97224465756881
 20
25.02012721153324
 30
0.0000000000000209
 10
43.97738285737978
 20
24.99261759228693
 30
0.0000000000000209
 10
43.98368609426325
 20
24.96489524801382
 30
0.0000000000000209
 10
43.99104384265956
 20
24.93721214904826
 30
0.0000000000000209
 10
43.99694023072152
 20
24.91901024058279
 30
0.0000000000000209
 10
43.99988784887319
 20
24.90991106406773
 30
0.0000000000000209
  0
SPLINE
  5
530
330
21
100
AcDbEntity
  8
0
370
    -3
100
AcDbSpline
210
0.0
220
0.0
230
1.0
 70
     8
 71
     3
 72
    11
 73
     7
 74
     0
 42
0.000000001
 43
0.00000001
 40
0.0
 40
0.0
 40
0.0
 40
0.0
 40
0.341241563239971
 40
0.6379284985559349
 40
0.8951827129913431
 40
1.0
 40
1.0
 40
1.0
 40
1.0
 10
43.99988784886773
 20
25.00991106406764
 30
0.0000000000000209
 10
43.99698066587189
 20
25.0098249794255
 30
0.0000000000000209
 10
43.99154587983685
 20
25.00966404988867
 30
0.0000000000000209
 10
43.98404031406426
 20
25.0082119799622
 30
0.0000000000000209
 10
43.97870143668843
 20
25.00638897149929
 30
0.0000000000000209
 10
43.97598795451631
 20
25.00492506445926
 30
0.0000000000000209
 10
43.97520241950951
 20
25.00450127312615
 30
0.0000000000000209
  0
SPLINE
  5
531
330
21
100
AcDbEntity
  8
0
370
    -3
100
AcDbSpline
210
0.0
220
0.0
230
1.0
 70
     8
 71
     3
 72
    19
 73
    15
 74
     0
 42
0.000000001
 43
0.00000001
 40
0.0
 40
0.0
 40
0.0
 40
0.0
 40
0.1000066282565728
 40
0.1979618879248131
 40
0.2938656135999037
 40
0.3877176433414303
 40
0.4795178186731642
 40
0.5692659845836914
 40
0.6551815512580452
 40
0.7354477889799063
 40
0.8100636710209888
 40
0.8790282429297502
 40
0.9423406225435441
 40
1.0
 40
1.0
 40
1.0
 40
1.0
 10
58.18928769578815
 20
25.00020962617327
 30
0.0000000000000239
 10
58.18503834841067
 20
25.01213735347847
 30
0.0000000000000239
 10
58.1766268176525
 20
25.03574814265448
 30
0.0000000000000239
 10
58.15870322284718
 20
25.06846282919241
 30
0.0000000000000239
 10
58.13767201184783
 20
25.09823031979931
 30
0.0000000000000239
 10
58.11367470736513
 20
25.12465084258338
 30
0.0000000000000239
 10
58.08735874498961
 20
25.14757173259068
 30
0.0000000000000239
 10
58.0594161045301
 20
25.16675254584425
 30
0.0000000000000239
 10
58.03081457892586
 20
25.18202700312759
 30
0.0000000000000239
 10
58.00255187734183
 20
25.19348895735811
 30
0.0000000000000239
 10
57.97536874036996
 20
25.20153367823923
 30
0.0000000000000239
 10
57.94968005524606
 20
25.2066190273249
 30
0.0000000000000239
 10
57.9257914330974
 20
25.20943188122419
 30
0.0000000000000239
 10
57.91049216646206
 20
25.20975639123026
 30
0.0000000000000239
 10
57.90320000000065
 20
25.20991106406746
 30
0.0000000000000238
  0
SPLINE
  5
532
330
21
100
AcDbEntity
  8
0
370
    -3
100
AcDbSpline
210
0.0
220
0.0
230
1.0
 70
     8
 71
     3
 72
    19
 73
    15
 74
     0
 42
0.000000001
 43
0.00000001
 40
0.0
 40
0.0
 40
0.0
 40
0.0
 40
0.0890134128412816
 40
0.1749084314584855
 40
0.2576847209666583
 40
0.3373419586399815
 40
0.4138798339135006
 40
0.4872980483832142
 40
0.5575963158085874
 40
0.6247743621128132
 40
0.737882957744061
 40
0.8290157552790033
 40
0.9163882678237806
 40
1.0
 40
1.0
 40
1.0
 40
1.0
 10
57.99856256526255
 20
24.94001058476942
 30
0.0000000000000239
 10
57.99731653144772
 20
24.94355358264693
 30
0.0000000000000239
 10
57.99486811594215
 20
24.95051545706201
 30
0.0000000000000239
 10
57.98984845213818
 20
24.9601838915496
 30
0.0000000000000239
 10
57.98412410179844
 20
24.96896362613052
 30
0.0000000000000239
 10
57.97775937145525
 20
24.97679400395737
 30
0.0000000000000239
 10
57.97093741206299
 20
24.98367903334702
 30
0.0000000000000239
 10
57.96379730249282
 20
24.98963267915406
 30
0.0000000000000239
 10
57.9564720441831
 20
24.99468923390623
 30
0.0000000000000239
 10
57.94728269330881
 20
24.99991629793476
 30
0.0000000000000239
 10
57.93672018490724
 20
25.00442793964612
 30
0.0000000000000239
 10
57.92486292826652
 20
25.00773936081214
 30
0.0000000000000239
 10
57.91393553809576
 20
25.00958188861114
 30
0.0000000000000239
 10
57.90672565247405
 20
25.00980295972749
 30
0.0000000000000239
 10
57.90320000000065
 20
25.00991106406764
 30
0.0000000000000239
  0
SPLINE
  5
533
330
21
100
AcDbEntity
  8
0
370
    -3
100
AcDbSpline
210
0.0
220
0.0
230
1.0
 70
     8
 71
     3
 72
     9
 73
     5
 74
     0
 42
0.000000001
 43
0.00000001
 40
0.0
 40
0.0
 40
0.0
 40
0.0
 40
0.5599948332398536
 40
1.0
 40
1.0
 40
1.0
 40
1.0
 10
58.20319999999992
 20
24.90991106406773
 30
0.0000000000000239
 10
58.20316708464452
 20
24.91353864777284
 30
0.0000000000000239
 10
58.20310830668132
 20
24.92001653558509
 30
0.0000000000000239
 10
58.20273511017695
 20
24.92648362542877
 30
0.0000000000000239
 10
58.20257090178711
 20
24.92932917837334
 30
0.0000000000000239
  0
SPLINE
  5
534
330
21
100
AcDbEntity
  8
0
370
    -3
100
AcDbSpline
210
0.0
220
0.0
230
1.0
 70
     8
 71
     3
 72
    19
 73
    15
 74
     0
 42
0.000000001
 43
0.00000001
 40
0.0
 40
0.0
 40
0.0
 40
0.0
 40
0.0576694115794799
 40
0.1209878102261389
 40
0.1899543871503468
 40
0.2645682614161877
 40
0.3448284799526947
 40
0.4307340175659668
 40
0.5205006591917082
 40
0.6123119183105579
 40
0.7061676410071436
 40
0.8020676699386815
 40
0.900011844335227
 40
1.0
 40
1.0
 40
1.0
 40
1.0
 10
42.6232
 20
25.20991106406746
 30
0.0000000000000206
 10
42.6159065637712
 20
25.2097563382622
 30
0.0000000000000206
 10
42.60060526531561
 20
25.20943173053911
 30
0.0000000000000206
 10
42.57671441137609
 20
25.20661819943416
 30
0.0000000000000206
 10
42.55102508720483
 20
25.20153215082701
 30
0.0000000000000206
 10
42.52384285679182
 20
25.19348705938501
 30
0.0000000000000206
 10
42.49558246956258
 20
25.18202550016485
 30
0.0000000000000206
 10
42.46698078581903
 20
25.16675072588714
 30
0.0000000000000206
 10
42.43903629931265
 20
25.14756816536237
 30
0.0000000000000206
 10
42.41271784333367
 20
25.12464369451618
 30
0.0000000000000206
 10
42.38872064211682
 20
25.09822117171052
 30
0.0000000000000206
 10
42.36769142114645
 20
25.06845399656459
 30
0.0000000000000206
 10
42.34977090208304
 20
25.03574247994311
 30
0.0000000000000206
 10
42.341360786324
 20
25.01213517236511
 30
0.0000000000000206
 10
42.3371123042125
 20
25.00020962617327
 30
0.0000000000000206
  0
SPLINE
  5
535
330
21
100
AcDbEntity
  8
0
370
    -3
100
AcDbSpline
210
0.0
220
0.0
230
1.0
 70
     8
 71
     3
 72
     9
 73
     5
 74
     0
 42
0.000000001
 43
0.00000001
 40
0.0
 40
0.0
 40
0.0
 40
0.0
 40
0.5599954860955872
 40
1.0
 40
1.0
 40
1.0
 40
1.0
 10
42.32382909628359
 20
24.92932914862695
 30
0.0000000000000206
 10
42.32362714019291
 20
24.92570704274658
 30
0.0000000000000206
 10
42.32326650140931
 20
24.91923894439469
 30
0.0000000000000206
 10
42.32322032002048
 20
24.91276127002857
 30
0.0000000000000206
 10
42.32320000000072
 20
24.90991106406773
 30
0.0000000000000206
  0
SPLINE
  5
536
330
21
100
AcDbEntity
  8
0
370
    -3
100
AcDbSpline
210
0.0
220
0.0
230
1.0
 70
     8
 71
     3
 72
    19
 73
    15
 74
     0
 42
0.000000001
 43
0.00000001
 40
0.0
 40
0.0
 40
0.0
 40
0.0
 40
0.0934579881450568
 40
0.1863064715125594
 40
0.2785454362674603
 40
0.3701748686653619
 40
0.4390537057917193
 40
0.5107471071024499
 40
0.5852548451358001
 40
0.6625766835013969
 40
0.7427123768802505
 40
0.825661671026013
 40
0.9114243027656143
 40
1.0
 40
1.0
 40
1.0
 40
1.0
 10
42.6232
 20
25.00991106406764
 30
0.0000000000000206
 10
42.61925858727773
 20
25.0097764431207
 30
0.0000000000000206
 10
42.61140146653452
 20
25.00950807918434
 30
0.0000000000000206
 10
42.59981788235018
 20
25.00735776926331
 30
0.0000000000000206
 10
42.58863021686921
 20
25.00399065084048
 30
0.0000000000000206
 10
42.57883897360443
 20
24.99972523947736
 30
0.0000000000000206
 10
42.57029647923446
 20
24.99492654815458
 30
0.0000000000000206
 10
42.56280826744478
 20
24.98979451767809
 30
0.0000000000000206
 10
42.55555089329755
 20
24.98376516193639
 30
0.0000000000000206
 10
42.54865454958599
 20
24.97681346542458
 30
0.0000000000000206
 10
42.54225289870919
 20
24.96893453309531
 30
0.0000000000000206
 10
42.53652178590528
 20
24.96013276469012
 30
0.0000000000000206
 10
42.53151620620883
 20
24.95047593153458
 30
0.0000000000000206
 10
42.52907681231227
 20
24.94353635857442
 30
0.0000000000000206
 10
42.5278374347381
 20
24.94001058476988
 30
0.0000000000000206
  0
SPLINE
  5
537
330
21
100
AcDbEntity
  8
0
370
    -3
100
AcDbSpline
210
0.0
220
0.0
230
1.0
 70
     8
 71
     3
 72
     9
 73
     5
 74
     0
 42
0.000000001
 43
0.00000001
 40
0.0
 40
0.0
 40
0.0
 40
0.0
 40
0.5599948332386648
 40
1.0
 40
1.0
 40
1.0
 40
1.0
 10
58.00320000000102
 20
24.90991106406773
 30
0.0000000000000239
 10
58.00318902821527
 20
24.91112025863595
 30
0.0000000000000239
 10
58.00316943556027
 20
24.91327955457336
 30
0.0000000000000239
 10
58.00304503672669
 20
24.91543525118777
 30
0.0000000000000239
 10
58.00299030059614
 20
24.91638376883611
 30
0.0000000000000239
  0
SPLINE
  5
538
330
21
100
AcDbEntity
  8
0
370
    -3
100
AcDbSpline
210
0.0
220
0.0
230
1.0
 70
     8
 71
     3
 72
     9
 73
     5
 74
     0
 42
0.000000001
 43
0.00000001
 40
0.0
 40
0.0
 40
0.0
 40
0.0
 40
0.5599956205454907
 40
1.0
 40
1.0
 40
1.0
 40
1.0
 10
42.52340969876241
 20
24.9163837589208
 30
0.0000000000000206
 10
42.52334238006551
 20
24.91517639000358
 30
0.0000000000000206
 10
42.52322216716493
 20
24.91302035721856
 30
0.0000000000000206
 10
42.52320677334683
 20
24.91086113243045
 30
0.0000000000000206
 10
42.52319999999963
 20
24.90991106406773
 30
0.0000000000000206
  0
TEXT
  5
539
330
21
100
AcDbEntity
  8
0
100
AcDbText
 10
43.9386444543652
 20
62.00149714691815
 30
0.0
 40
1.5
  1
Butler XT3
  7
OSRAM 5
100
AcDbText
  0
TEXT
  5
53B
330
21
100
AcDbEntity
  8
0
100
AcDbText
 10
44.55499473384407
 20
66.49123173301223
 30
0.0
 40
0.6
  1
LIGHTING CONTROL
100
AcDbText
1001
ACAD
1000
ACAD_MTEXT_DEFINED_HEIGHT_BEGIN
1070
    46
1040
0.3590383327285104
1000
ACAD_MTEXT_DEFINED_HEIGHT_END
  0
TEXT
  5
53C
330
21
100
AcDbEntity
  8
0
100
AcDbText
 10
39.79619000330786
 20
67.83873097864853
 30
0.0
 40
5.2
  1
e:cue
100
AcDbText
1001
ACAD
1000
ACAD_MTEXT_DEFINED_HEIGHT_BEGIN
1070
    46
1040
6.229202348497472
1000
ACAD_MTEXT_DEFINED_HEIGHT_END
  0
TEXT
  5
53D
330
21
100
AcDbEntity
  8
0
100
AcDbText
 10
42.3803351939132
 20
58.31426832667421
 30
0.0
 40
1.2
  1
Made in Germany
100
AcDbText
  0
TEXT
  5
53E
330
21
100
AcDbEntity
  8
0
100
AcDbText
 10
43.46573764957429
 20
54.2929859255828
 30
0.0
 40
1.2
  1
www.ecue.com
100
AcDbText
  0
TEXT
  5
53F
330
21
100
AcDbEntity
  8
0
100
AcDbText
 10
-74.0262608999983
 20
41.66733771059262
 30
0.0
 40
1.0
  1
RS232 tx
 50
90.0
 11
-74.5262608999983
 21
41.66733771059262
 31
0.0
100
AcDbText
 73
     2
  0
LINE
  5
540
330
21
100
AcDbEntity
  8
0
 62
     7
370
    -3
100
AcDbLine
 10
-77.0262608999983
 20
33.84019386073624
 30
0.0
 11
-77.0262608999983
 21
48.84019386073624
 31
0.0
  0
LINE
  5
541
330
21
100
AcDbEntity
  8
0
 62
     7
370
    -3
100
AcDbLine
 10
-77.0262608999983
 20
48.84019386073624
 30
0.0
 11
-62.02626089999831
 21
48.84019386073624
 31
0.0
  0
LINE
  5
542
330
21
100
AcDbEntity
  8
0
 62
     7
370
    -3
100
AcDbLine
 10
-72.0262608999983
 20
48.84019386073624
 30
0.0
 11
-72.0262608999983
 21
33.84019386073624
 31
0.0
  0
LINE
  5
543
330
21
100
AcDbEntity
  8
0
 62
     7
370
    -3
100
AcDbLine
 10
-62.02626089999831
 20
33.84019386073624
 30
0.0
 11
-77.0262608999983
 21
33.84019386073624
 31
0.0
  0
LINE
  5
544
330
21
100
AcDbEntity
  8
0
 62
     7
370
    -3
100
AcDbLine
 10
-77.0262608999983
 20
41.34019386073624
 30
0.0
 11
-62.02626089999831
 21
41.34019386073624
 31
0.0
  0
LINE
  5
545
330
21
100
AcDbEntity
  8
0
 62
     7
370
    -3
100
AcDbLine
 10
-67.0262608999983
 20
48.84019386073624
 30
0.0
 11
-67.0262608999983
 21
33.84019386073624
 31
0.0
  0
LINE
  5
546
330
21
100
AcDbEntity
  8
0
 62
     7
370
    -3
100
AcDbLine
 10
-62.02626089999831
 20
48.84019386073624
 30
0.0
 11
-62.02626089999831
 21
33.84019386073624
 31
0.0
  0
TEXT
  5
547
330
21
100
AcDbEntity
  8
0
100
AcDbText
 10
-69.0262608999983
 20
41.66733771059262
 30
0.0
 40
1.0
  1
RS232 rx
 50
90.0
 11
-69.5262608999983
 21
41.66733771059262
 31
0.0
100
AcDbText
 73
     2
  0
TEXT
  5
548
330
21
100
AcDbEntity
  8
0
100
AcDbText
 10
-64.1512608999983
 20
41.66733771059262
 30
0.0
 40
0.75
  1
RS232 GND
 50
90.0
 11
-64.5262608999983
 21
41.66733771059262
 31
0.0
100
AcDbText
 73
     2
  0
TEXT
  5
549
330
21
100
AcDbEntity
  8
0
100
AcDbText
 10
-69.0262608999983
 20
34.16733771059262
 30
0.0
 40
1.0
  1
e:bus2 -
 50
90.0
 11
-69.5262608999983
 21
34.16733771059262
 31
0.0
100
AcDbText
 73
     2
  0
TEXT
  5
54A
330
21
100
AcDbEntity
  8
0
100
AcDbText
 10
-74.0262608999983
 20
34.16733771059262
 30
0.0
 40
1.0
  1
e:bus2 +
 50
90.0
 11
-74.5262608999983
 21
34.16733771059262
 31
0.0
100
AcDbText
 73
     2
  0
TEXT
  5
54B
330
21
100
AcDbEntity
  8
0
100
AcDbText
 10
-51.67426089999753
 20
42.13763636501108
 30
0.0
 40
1.0
  1
+
 50
90.0
 11
-52.17426089999753
 21
42.13763636501108
 31
0.0
100
AcDbText
 73
     2
  0
LINE
  5
54C
330
21
100
AcDbEntity
  8
0
 62
     7
370
    -3
100
AcDbLine
 10
-54.67426089999753
 20
33.84019386073624
 30
0.0
 11
-54.67426089999753
 21
48.84019386073624
 31
0.0
  0
LINE
  5
54D
330
21
100
AcDbEntity
  8
0
 62
     7
370
    -3
100
AcDbLine
 10
-54.67426089999753
 20
48.84019386073624
 30
0.0
 11
-39.67426089999753
 21
48.84019386073624
 31
0.0
  0
LINE
  5
54E
330
21
100
AcDbEntity
  8
0
 62
     7
370
    -3
100
AcDbLine
 10
-49.67426089999753
 20
45.09019386073624
 30
0.0
 11
-49.67426089999753
 21
41.34019386073624
 31
0.0
  0
LINE
  5
54F
330
21
100
AcDbEntity
  8
0
 62
     7
370
    -3
100
AcDbLine
 10
-39.67426089999753
 20
33.84019386073624
 30
0.0
 11
-54.67426089999753
 21
33.84019386073624
 31
0.0
  0
LINE
  5
550
330
21
100
AcDbEntity
  8
0
 62
     7
370
    -3
100
AcDbLine
 10
-54.67426089999753
 20
41.34019386073624
 30
0.0
 11
-39.67426089999753
 21
41.34019386073624
 31
0.0
  0
LINE
  5
551
330
21
100
AcDbEntity
  8
0
 62
     7
370
    -3
100
AcDbLine
 10
-44.67426089999753
 20
45.09019386073624
 30
0.0
 11
-44.67426089999753
 21
41.34019386073624
 31
0.0
  0
LINE
  5
552
330
21
100
AcDbEntity
  8
0
 62
     7
370
    -3
100
AcDbLine
 10
-39.67426089999753
 20
48.84019386073624
 30
0.0
 11
-39.67426089999753
 21
33.84019386073624
 31
0.0
  0
TEXT
  5
553
330
21
100
AcDbEntity
  8
0
100
AcDbText
 10
-46.67426089999753
 20
42.13763636501108
 30
0.0
 40
1.0
  1
-
 50
90.0
 11
-47.17426089999753
 21
42.13763636501108
 31
0.0
100
AcDbText
 73
     2
  0
TEXT
  5
554
330
21
100
AcDbEntity
  8
0
100
AcDbText
 10
-41.79926089999753
 20
42.13763636501108
 30
0.0
 40
0.75
  1
GND
 50
90.0
 11
-42.17426089999753
 21
42.13763636501108
 31
0.0
100
AcDbText
 73
     2
  0
TEXT
  5
555
330
21
100
AcDbEntity
  8
0
100
AcDbText
 10
-46.67426089999753
 20
34.63763636501108
 30
0.0
 40
1.0
  1
-
 50
90.0
 11
-47.17426089999753
 21
34.63763636501108
 31
0.0
100
AcDbText
 73
     2
  0
TEXT
  5
556
330
21
100
AcDbEntity
  8
0
100
AcDbText
 10
-51.67426089999753
 20
34.63763636501108
 30
0.0
 40
1.0
  1
+
 50
90.0
 11
-52.17426089999753
 21
34.63763636501108
 31
0.0
100
AcDbText
 73
     2
  0
LINE
  5
557
330
21
100
AcDbEntity
  8
0
 62
     7
370
    -3
100
AcDbLine
 10
5.236516140001186
 20
33.84019386073624
 30
0.0
 11
5.236516140001186
 21
48.84019386073624
 31
0.0
  0
LINE
  5
558
330
21
100
AcDbEntity
  8
0
 62
     7
370
    -3
100
AcDbLine
 10
5.236516140001186
 20
48.84019386073624
 30
0.0
 11
35.23651614000119
 21
48.84019386073624
 31
0.0
  0
LINE
  5
559
330
21
100
AcDbEntity
  8
0
 62
     7
370
    -3
100
AcDbLine
 10
10.23651614000119
 20
48.84019386073624
 30
0.0
 11
10.23651614000119
 21
33.84019386073624
 31
0.0
  0
LINE
  5
55A
330
21
100
AcDbEntity
  8
0
 62
     7
370
    -3
100
AcDbLine
 10
35.23651614000119
 20
33.84019386073624
 30
0.0
 11
5.236516140001186
 21
33.84019386073624
 31
0.0
  0
LINE
  5
55B
330
21
100
AcDbEntity
  8
0
 62
     7
370
    -3
100
AcDbLine
 10
5.236516140001186
 20
41.34019386073624
 30
0.0
 11
35.23651614000119
 21
41.34019386073624
 31
0.0
  0
LINE
  5
55C
330
21
100
AcDbEntity
  8
0
 62
     7
370
    -3
100
AcDbLine
 10
15.23651614000119
 20
48.84019386073624
 30
0.0
 11
15.23651614000119
 21
33.84019386073624
 31
0.0
  0
LINE
  5
55D
330
21
100
AcDbEntity
  8
0
 62
     7
370
    -3
100
AcDbLine
 10
20.23651614000119
 20
48.84019386073624
 30
0.0
 11
20.23651614000119
 21
33.84019386073624
 31
0.0
  0
TEXT
  5
55E
330
21
100
AcDbEntity
  8
0
100
AcDbText
 10
67.10955022000053
 20
41.66733771059262
 30
0.0
 40
1.0
  1
PWR +
 50
90.0
 11
66.60955022000053
 21
41.66733771059262
 31
0.0
100
AcDbText
 73
     2
  0
LINE
  5
55F
330
21
100
AcDbEntity
  8
0
 62
     7
370
    -3
100
AcDbLine
 10
64.10955022000053
 20
33.84019386073624
 30
0.0
 11
64.10955022000053
 21
48.84019386073624
 31
0.0
  0
LINE
  5
560
330
21
100
AcDbEntity
  8
0
 62
     7
370
    -3
100
AcDbLine
 10
64.10955022000053
 20
48.84019386073624
 30
0.0
 11
79.10955022000053
 21
48.84019386073624
 31
0.0
  0
LINE
  5
561
330
21
100
AcDbEntity
  8
0
 62
     7
370
    -3
100
AcDbLine
 10
69.10955022000053
 20
48.84019386073624
 30
0.0
 11
69.10955022000053
 21
33.84019386073624
 31
0.0
  0
LINE
  5
562
330
21
100
AcDbEntity
  8
0
 62
     7
370
    -3
100
AcDbLine
 10
79.10955022000053
 20
33.84019386073624
 30
0.0
 11
64.10955022000053
 21
33.84019386073624
 31
0.0
  0
LINE
  5
563
330
21
100
AcDbEntity
  8
0
 62
     7
370
    -3
100
AcDbLine
 10
64.10955022000053
 20
41.34019386073624
 30
0.0
 11
79.10955022000053
 21
41.34019386073624
 31
0.0
  0
LINE
  5
564
330
21
100
AcDbEntity
  8
0
 62
     7
370
    -3
100
AcDbLine
 10
74.10955022000053
 20
48.84019386073624
 30
0.0
 11
74.10955022000053
 21
33.84019386073624
 31
0.0
  0
LINE
  5
565
330
21
100
AcDbEntity
  8
0
 62
     7
370
    -3
100
AcDbLine
 10
79.10955022000053
 20
48.84019386073624
 30
0.0
 11
79.10955022000053
 21
33.84019386073624
 31
0.0
  0
TEXT
  5
566
330
21
100
AcDbEntity
  8
0
100
AcDbText
 10
72.10955022000053
 20
41.66733771059262
 30
0.0
 40
1.0
  1
PWR -
 50
90.0
 11
71.60955022000053
 21
41.66733771059262
 31
0.0
100
AcDbText
 73
     2
  0
TEXT
  5
567
330
21
100
AcDbEntity
  8
0
100
AcDbText
 10
72.10955022000053
 20
34.16733771059262
 30
0.0
 40
1.0
  1
PWR -
 50
90.0
 11
71.60955022000053
 21
34.16733771059262
 31
0.0
100
AcDbText
 73
     2
  0
TEXT
  5
568
330
21
100
AcDbEntity
  8
0
100
AcDbText
 10
67.10955022000053
 20
34.16733771059262
 30
0.0
 40
1.0
  1
PWR +
 50
90.0
 11
66.60955022000053
 21
34.16733771059262
 31
0.0
100
AcDbText
 73
     2
  0
LINE
  5
569
330
21
100
AcDbEntity
  8
0
 62
     7
370
    -3
100
AcDbLine
 10
-54.67426089999753
 20
45.09019386073624
 30
0.0
 11
-39.67426089999753
 21
45.09019386073624
 31
0.0
  0
LINE
  5
56A
330
21
100
AcDbEntity
  8
0
 62
     7
370
    -3
100
AcDbLine
 10
-49.67426089999753
 20
37.59019386073624
 30
0.0
 11
-49.67426089999753
 21
33.84019386073624
 31
0.0
  0
LINE
  5
56B
330
21
100
AcDbEntity
  8
0
 62
     7
370
    -3
100
AcDbLine
 10
-44.67426089999753
 20
37.59019386073624
 30
0.0
 11
-44.67426089999753
 21
33.84019386073624
 31
0.0
  0
LINE
  5
56C
330
21
100
AcDbEntity
  8
0
 62
     7
370
    -3
100
AcDbLine
 10
-54.67426089999753
 20
37.59019386073624
 30
0.0
 11
-39.67426089999753
 21
37.59019386073624
 31
0.0
  0
TEXT
  5
56D
330
21
100
AcDbEntity
  8
0
100
AcDbText
 10
-41.79926089999753
 20
34.63763636501108
 30
0.0
 40
0.75
  1
GND
 50
90.0
 11
-42.17426089999753
 21
34.63763636501108
 31
0.0
100
AcDbText
 73
     2
  0
TEXT
  5
56E
330
21
100
AcDbEntity
  8
0
100
AcDbText
 10
-49.11491574310804
 20
46.3862375169436
 30
0.0
 40
1.0
  1
DMX1
 72
     1
 11
-47.17426089999753
 21
46.09019386073624
 31
0.0
100
AcDbText
 73
     1
  0
TEXT
  5
56F
330
21
100
AcDbEntity
  8
0
100
AcDbText
 10
-49.11491574310804
 20
38.8862375169436
 30
0.0
 40
1.0
  1
DMX2
 72
     1
 11
-47.17426089999753
 21
38.59019386073624
 31
0.0
100
AcDbText
 73
     1
  0
LINE
  5
570
330
21
100
AcDbEntity
  8
0
 62
     7
370
    -3
100
AcDbLine
 10
-17.62247410417149
 20
33.84019386073624
 30
0.0
 11
-17.62247410417149
 21
45.09019386073624
 31
0.0
  0
LINE
  5
571
330
21
100
AcDbEntity
  8
0
 62
     7
370
    -3
100
AcDbLine
 10
-32.62247410417149
 20
48.84019386073624
 30
0.0
 11
-2.622474104171488
 21
48.84019386073624
 31
0.0
  0
LINE
  5
572
330
21
100
AcDbEntity
  8
0
 62
     7
370
    -3
100
AcDbLine
 10
-2.622474104171488
 20
33.84019386073624
 30
0.0
 11
-32.62247410417149
 21
33.84019386073624
 31
0.0
  0
LINE
  5
573
330
21
100
AcDbEntity
  8
0
 62
     7
370
    -3
100
AcDbLine
 10
-17.62247410417149
 20
41.34019386073624
 30
0.0
 11
-2.622474104171488
 21
41.34019386073624
 31
0.0
  0
LINE
  5
574
330
21
100
AcDbEntity
  8
0
 62
     7
370
    -3
100
AcDbLine
 10
-2.622474104171488
 20
48.84019386073624
 30
0.0
 11
-2.622474104171488
 21
33.84019386073624
 31
0.0
  0
LINE
  5
575
330
21
100
AcDbEntity
  8
0
 62
     7
370
    -3
100
AcDbLine
 10
-32.62247410417149
 20
45.09019386073624
 30
0.0
 11
-2.622474104171488
 21
45.09019386073624
 31
0.0
  0
LINE
  5
576
330
21
100
AcDbEntity
  8
0
 62
     7
370
    -3
100
AcDbLine
 10
-12.62247410417149
 20
41.34019386073624
 30
0.0
 11
-12.62247410417149
 21
33.84019386073624
 31
0.0
  0
LINE
  5
577
330
21
100
AcDbEntity
  8
0
 62
     7
370
    -3
100
AcDbLine
 10
-7.622474104171488
 20
41.34019386073624
 30
0.0
 11
-7.622474104171488
 21
33.84019386073624
 31
0.0
  0
TEXT
  5
578
330
21
100
AcDbEntity
  8
0
100
AcDbText
 10
-20.9594454547854
 20
46.3862375169436
 30
0.0
 40
1.0
  1
DMX/RDM
 72
     1
 11
-17.62247410417149
 21
46.09019386073624
 31
0.0
100
AcDbText
 73
     1
  0
TEXT
  5
579
330
21
100
AcDbEntity
  8
0
100
AcDbText
 10
-12.06312894728199
 20
42.6362375169436
 30
0.0
 40
1.0
  1
DMX2
 72
     1
 11
-10.12247410417149
 21
42.34019386073624
 31
0.0
100
AcDbText
 73
     1
  0
LINE
  5
57A
330
21
100
AcDbEntity
  8
0
 62
     7
370
    -3
100
AcDbLine
 10
-32.62247410417149
 20
41.34019386073624
 30
0.0
 11
-17.62247410417149
 21
41.34019386073624
 31
0.0
  0
LINE
  5
57B
330
21
100
AcDbEntity
  8
0
 62
     7
370
    -3
100
AcDbLine
 10
-32.62247410417149
 20
48.84019386073624
 30
0.0
 11
-32.62247410417149
 21
33.84019386073624
 31
0.0
  0
LINE
  5
57C
330
21
100
AcDbEntity
  8
0
 62
     7
370
    -3
100
AcDbLine
 10
-22.62247410417149
 20
41.34019386073624
 30
0.0
 11
-22.62247410417149
 21
33.84019386073624
 31
0.0
  0
LINE
  5
57D
330
21
100
AcDbEntity
  8
0
 62
     7
370
    -3
100
AcDbLine
 10
-27.62247410417149
 20
41.34019386073624
 30
0.0
 11
-27.62247410417149
 21
33.84019386073624
 31
0.0
  0
TEXT
  5
57E
330
21
100
AcDbEntity
  8
0
100
AcDbText
 10
-27.06312894728199
 20
42.6362375169436
 30
0.0
 40
1.0
  1
DMX1
 72
     1
 11
-25.12247410417149
 21
42.34019386073624
 31
0.0
100
AcDbText
 73
     1
  0
TEXT
  5
57F
330
21
100
AcDbEntity
  8
0
100
AcDbText
 10
-30.60312614617376
 20
38.8862375169436
 30
0.0
 40
1.0
  1
1
 72
     1
 11
-30.21465411343161
 21
38.59019386073624
 31
0.0
100
AcDbText
 73
     1
  0
TEXT
  5
580
330
21
100
AcDbEntity
  8
0
100
AcDbText
 10
-30.44725984330882
 20
35.1362375169436
 30
0.0
 40
1.0
  1
-
 72
     1
 11
-30.21465411343161
 21
34.84019386073624
 31
0.0
100
AcDbText
 73
     1
  0
TEXT
  5
581
330
21
100
AcDbEntity
  8
0
100
AcDbText
 10
-25.60312614617376
 20
38.8862375169436
 30
0.0
 40
1.0
  1
2
 72
     1
 11
-25.21465411343161
 21
38.59019386073624
 31
0.0
100
AcDbText
 73
     1
  0
TEXT
  5
582
330
21
100
AcDbEntity
  8
0
100
AcDbText
 10
-25.62256680101687
 20
35.1362375169436
 30
0.0
 40
1.0
  1
+
 72
     1
 11
-25.21465411343161
 21
34.84019386073624
 31
0.0
100
AcDbText
 73
     1
  0
TEXT
  5
583
330
21
100
AcDbEntity
  8
0
100
AcDbText
 10
-20.60312614617376
 20
38.8862375169436
 30
0.0
 40
1.0
  1
3
 72
     1
 11
-20.21465411343161
 21
38.59019386073624
 31
0.0
100
AcDbText
 73
     1
  0
TEXT
  5
584
330
21
100
AcDbEntity
  8
0
100
AcDbText
 10
-21.76683692379996
 20
35.1362375169436
 30
0.0
 40
1.0
  1
GND
 72
     1
 11
-20.21465411343161
 21
34.84019386073624
 31
0.0
100
AcDbText
 73
     1
  0
TEXT
  5
585
330
21
100
AcDbEntity
  8
0
100
AcDbText
 10
-15.60312614617376
 20
38.8862375169436
 30
0.0
 40
1.0
  1
1
 72
     1
 11
-15.21465411343161
 21
38.59019386073624
 31
0.0
100
AcDbText
 73
     1
  0
TEXT
  5
586
330
21
100
AcDbEntity
  8
0
100
AcDbText
 10
-15.44725984330882
 20
35.1362375169436
 30
0.0
 40
1.0
  1
-
 72
     1
 11
-15.21465411343161
 21
34.84019386073624
 31
0.0
100
AcDbText
 73
     1
  0
TEXT
  5
587
330
21
100
AcDbEntity
  8
0
100
AcDbText
 10
-10.60312614617376
 20
38.8862375169436
 30
0.0
 40
1.0
  1
2
 72
     1
 11
-10.21465411343161
 21
38.59019386073624
 31
0.0
100
AcDbText
 73
     1
  0
TEXT
  5
588
330
21
100
AcDbEntity
  8
0
100
AcDbText
 10
-10.62256680101687
 20
35.1362375169436
 30
0.0
 40
1.0
  1
+
 72
     1
 11
-10.21465411343161
 21
34.84019386073624
 31
0.0
100
AcDbText
 73
     1
  0
TEXT
  5
589
330
21
100
AcDbEntity
  8
0
100
AcDbText
 10
-5.603126146173762
 20
38.8862375169436
 30
0.0
 40
1.0
  1
3
 72
     1
 11
-5.214654113431607
 21
38.59019386073624
 31
0.0
100
AcDbText
 73
     1
  0
TEXT
  5
58A
330
21
100
AcDbEntity
  8
0
100
AcDbText
 10
-6.766836923799955
 20
35.1362375169436
 30
0.0
 40
1.0
  1
GND
 72
     1
 11
-5.214654113431607
 21
34.84019386073624
 31
0.0
100
AcDbText
 73
     1
  0
TEXT
  5
58B
330
21
100
AcDbEntity
  8
0
100
AcDbText
 10
6.867392065256756
 20
46.3862375169436
 30
0.0
 40
1.0
  1
12
 72
     1
 11
7.644336130741067
 21
46.09019386073624
 31
0.0
100
AcDbText
 73
     1
  0
TEXT
  5
58C
330
21
100
AcDbEntity
  8
0
100
AcDbText
 10
7.178442542746524
 20
42.6362375169436
 30
0.0
 40
1.0
  1
V
 72
     1
 11
7.644336130741067
 21
42.34019386073624
 31
0.0
100
AcDbText
 73
     1
  0
TEXT
  5
58D
330
21
100
AcDbEntity
  8
0
100
AcDbText
 10
6.867392065256756
 20
38.8862375169436
 30
0.0
 40
1.0
  1
12
 72
     1
 11
7.644336130741067
 21
38.59019386073624
 31
0.0
100
AcDbText
 73
     1
  0
TEXT
  5
58E
330
21
100
AcDbEntity
  8
0
100
AcDbText
 10
7.178442542746524
 20
35.1362375169436
 30
0.0
 40
1.0
  1
V
 72
     1
 11
7.644336130741067
 21
34.84019386073624
 31
0.0
100
AcDbText
 73
     1
  0
TEXT
  5
58F
330
21
100
AcDbEntity
  8
0
100
AcDbText
 10
11.94583681286931
 20
38.8862375169436
 30
0.0
 40
1.0
  1
IN
 72
     1
 11
12.64433613074107
 21
38.59019386073624
 31
0.0
100
AcDbText
 73
     1
  0
TEXT
  5
590
330
21
100
AcDbEntity
  8
0
100
AcDbText
 10
12.25586409799891
 20
35.1362375169436
 30
0.0
 40
1.0
  1
2
 72
     1
 11
12.64433613074107
 21
34.84019386073624
 31
0.0
100
AcDbText
 73
     1
  0
TEXT
  5
591
330
21
100
AcDbEntity
  8
0
100
AcDbText
 10
11.94583681286931
 20
46.3862375169436
 30
0.0
 40
1.0
  1
IN
 72
     1
 11
12.64433613074107
 21
46.09019386073624
 31
0.0
100
AcDbText
 73
     1
  0
TEXT
  5
592
330
21
100
AcDbEntity
  8
0
100
AcDbText
 10
12.25586409799891
 20
42.6362375169436
 30
0.0
 40
1.0
  1
1
 72
     1
 11
12.64433613074107
 21
42.34019386073624
 31
0.0
100
AcDbText
 73
     1
  0
TEXT
  5
593
330
21
100
AcDbEntity
  8
0
100
AcDbText
 10
16.94583681286931
 20
46.3862375169436
 30
0.0
 40
1.0
  1
IN
 72
     1
 11
17.64433613074107
 21
46.09019386073624
 31
0.0
100
AcDbText
 73
     1
  0
TEXT
  5
594
330
21
100
AcDbEntity
  8
0
100
AcDbText
 10
17.25586409799891
 20
42.6362375169436
 30
0.0
 40
1.0
  1
3
 72
     1
 11
17.64433613074107
 21
42.34019386073624
 31
0.0
100
AcDbText
 73
     1
  0
TEXT
  5
595
330
21
100
AcDbEntity
  8
0
100
AcDbText
 10
16.94583681286931
 20
38.8862375169436
 30
0.0
 40
1.0
  1
IN
 72
     1
 11
17.64433613074107
 21
38.59019386073624
 31
0.0
100
AcDbText
 73
     1
  0
TEXT
  5
596
330
21
100
AcDbEntity
  8
0
100
AcDbText
 10
17.25586409799891
 20
35.1362375169436
 30
0.0
 40
1.0
  1
4
 72
     1
 11
17.64433613074107
 21
34.84019386073624
 31
0.0
100
AcDbText
 73
     1
  0
LINE
  5
597
330
21
100
AcDbEntity
  8
0
 62
     7
370
    -3
100
AcDbLine
 10
25.23651614000119
 20
48.84019386073624
 30
0.0
 11
25.23651614000119
 21
33.84019386073624
 31
0.0
  0
TEXT
  5
598
330
21
100
AcDbEntity
  8
0
100
AcDbText
 10
21.94583681286931
 20
46.3862375169436
 30
0.0
 40
1.0
  1
IN
 72
     1
 11
22.64433613074107
 21
46.09019386073624
 31
0.0
100
AcDbText
 73
     1
  0
TEXT
  5
599
330
21
100
AcDbEntity
  8
0
100
AcDbText
 10
22.25586409799891
 20
42.6362375169436
 30
0.0
 40
1.0
  1
5
 72
     1
 11
22.64433613074107
 21
42.34019386073624
 31
0.0
100
AcDbText
 73
     1
  0
TEXT
  5
59A
330
21
100
AcDbEntity
  8
0
100
AcDbText
 10
21.94583681286931
 20
38.8862375169436
 30
0.0
 40
1.0
  1
IN
 72
     1
 11
22.64433613074107
 21
38.59019386073624
 31
0.0
100
AcDbText
 73
     1
  0
TEXT
  5
59B
330
21
100
AcDbEntity
  8
0
100
AcDbText
 10
22.25586409799891
 20
35.1362375169436
 30
0.0
 40
1.0
  1
6
 72
     1
 11
22.64433613074107
 21
34.84019386073624
 31
0.0
100
AcDbText
 73
     1
  0
LINE
  5
59C
330
21
100
AcDbEntity
  8
0
 62
     7
370
    -3
100
AcDbLine
 10
30.23651614000119
 20
48.84019386073624
 30
0.0
 11
30.23651614000119
 21
33.84019386073624
 31
0.0
  0
TEXT
  5
59D
330
21
100
AcDbEntity
  8
0
100
AcDbText
 10
26.94583681286931
 20
46.3862375169436
 30
0.0
 40
1.0
  1
IN
 72
     1
 11
27.64433613074107
 21
46.09019386073624
 31
0.0
100
AcDbText
 73
     1
  0
TEXT
  5
59E
330
21
100
AcDbEntity
  8
0
100
AcDbText
 10
27.25586409799891
 20
42.6362375169436
 30
0.0
 40
1.0
  1
7
 72
     1
 11
27.64433613074107
 21
42.34019386073624
 31
0.0
100
AcDbText
 73
     1
  0
TEXT
  5
59F
330
21
100
AcDbEntity
  8
0
100
AcDbText
 10
26.94583681286931
 20
38.8862375169436
 30
0.0
 40
1.0
  1
IN
 72
     1
 11
27.64433613074107
 21
38.59019386073624
 31
0.0
100
AcDbText
 73
     1
  0
TEXT
  5
5A0
330
21
100
AcDbEntity
  8
0
100
AcDbText
 10
27.25586409799891
 20
35.1362375169436
 30
0.0
 40
1.0
  1
8
 72
     1
 11
27.64433613074107
 21
34.84019386073624
 31
0.0
100
AcDbText
 73
     1
  0
LINE
  5
5A1
330
21
100
AcDbEntity
  8
0
 62
     7
370
    -3
100
AcDbLine
 10
35.23651614000119
 20
48.84019386073624
 30
0.0
 11
35.23651614000119
 21
33.84019386073624
 31
0.0
  0
TEXT
  5
5A2
330
21
100
AcDbEntity
  8
0
100
AcDbText
 10
31.94583681286931
 20
46.3862375169436
 30
0.0
 40
1.0
  1
IN
 72
     1
 11
32.64433613074107
 21
46.09019386073624
 31
0.0
100
AcDbText
 73
     1
  0
TEXT
  5
5A3
330
21
100
AcDbEntity
  8
0
100
AcDbText
 10
31.09215332037272
 20
42.6362375169436
 30
0.0
 40
1.0
  1
GND
 72
     1
 11
32.64433613074107
 21
42.34019386073624
 31
0.0
100
AcDbText
 73
     1
  0
TEXT
  5
5A4
330
21
100
AcDbEntity
  8
0
100
AcDbText
 10
31.94583681286931
 20
38.8862375169436
 30
0.0
 40
1.0
  1
IN
 72
     1
 11
32.64433613074107
 21
38.59019386073624
 31
0.0
100
AcDbText
 73
     1
  0
TEXT
  5
5A5
330
21
100
AcDbEntity
  8
0
100
AcDbText
 10
31.09215332037272
 20
35.1362375169436
 30
0.0
 40
1.0
  1
GND
 72
     1
 11
32.64433613074107
 21
34.84019386073624
 31
0.0
100
AcDbText
 73
     1
  0
TEXT
  5
5A6
330
21
100
AcDbEntity
  8
0
100
AcDbText
 10
77.10955022000053
 20
41.66733771059262
 30
0.0
 40
1.0
  1
EARTH
 50
90.0
 11
76.60955022000053
 21
41.66733771059262
 31
0.0
100
AcDbText
 73
     2
  0
TEXT
  5
5A7
330
21
100
AcDbEntity
  8
0
100
AcDbText
 10
77.10955022000053
 20
34.16733771059262
 30
0.0
 40
1.0
  1
EARTH
 50
90.0
 11
76.60955022000053
 21
34.16733771059262
 31
0.0
100
AcDbText
 73
     2
  0
TEXT
  5
5A8
330
21
100
AcDbEntity
  8
0
100
AcDbText
 10
-74.78266171999894
 20
59.26418915392424
 30
0.0
 40
1.0
  1
PWR On
 50
90.0
 11
-75.28266171999894
 21
59.26418915392424
 31
0.0
100
AcDbText
 73
     2
  0
TEXT
  5
5A9
330
21
100
AcDbEntity
  8
0
100
AcDbText
 10
-69.77886171999853
 20
59.26418915392424
 30
0.0
 40
1.0
  1
e:bus2 Power
 50
90.0
 11
-70.27886171999853
 21
59.26418915392424
 31
0.0
100
AcDbText
 73
     2
  0
TEXT
  5
5AA
330
21
100
AcDbEntity
  8
0
100
AcDbText
 10
-64.77506171999812
 20
59.26418915392424
 30
0.0
 40
1.0
  1
Error
 50
90.0
 11
-65.27506171999812
 21
59.26418915392424
 31
0.0
100
AcDbText
 73
     2
  0
TEXT
  5
5AB
330
21
100
AcDbEntity
  8
0
100
AcDbText
 10
-59.77126171999771
 20
59.26418915392424
 30
0.0
 40
1.0
  1
e:net Link
 50
90.0
 11
-60.27126171999771
 21
59.26418915392424
 31
0.0
100
AcDbText
 73
     2
  0
TEXT
  5
5AC
330
21
100
AcDbEntity
  8
0
100
AcDbText
 10
-54.76746171999912
 20
59.26418915392424
 30
0.0
 40
1.0
  1
e:net Activity
 50
90.0
 11
-55.26746171999912
 21
59.26418915392424
 31
0.0
100
AcDbText
 73
     2
  0
TEXT
  5
5AD
330
21
100
AcDbEntity
  8
0
100
AcDbText
 10
-1.383506249871061
 20
61.15918993392552
 30
0.0
 40
1.0
  1
System
 50
90.0
 11
-1.883506249871061
 21
61.15918993392552
 31
0.0
100
AcDbText
 73
     2
  0
TEXT
  5
5AE
330
21
100
AcDbEntity
  8
0
100
AcDbText
 10
10.45289375012908
 20
61.15918993392643
 30
0.0
 40
1.0
  1
a
 50
90.0
 11
9.952893750129078
 21
61.15918993392643
 31
0.0
100
AcDbText
 73
     2
  0
TEXT
  5
5AF
330
21
100
AcDbEntity
  8
0
100
AcDbText
 10
22.15948969598685
 20
61.15918993392552
 30
0.0
 40
1.0
  1
b
 50
90.0
 11
21.65948969598685
 21
61.15918993392552
 31
0.0
100
AcDbText
 73
     2
  0
TEXT
  5
5B0
330
21
100
AcDbEntity
  8
0
100
AcDbText
 10
-43.91948440654665
 20
58.08308972027528
 30
0.0
 40
1.0
  1
microSD
 72
     1
 11
-41.24178999999822
 21
57.78704606406791
 31
0.0
100
AcDbText
 73
     1
  0
TEXT
  5
5B1
330
21
100
AcDbEntity
  8
0
100
AcDbText
 10
-77.0262608999983
 20
51.91378071335095
 30
0.0
 40
1.0
  1
e:bus2 Output 16V DC
 11
-77.0262608999983
 21
51.61773705714359
 31
0.0
100
AcDbText
 73
     1
  0
TEXT
  5
5B2
330
21
100
AcDbEntity
  8
0
100
AcDbText
 10
-77.0262608999983
 20
50.21932232610772
 30
0.0
 40
1.0
  1
115mA max.
 11
-77.0262608999983
 21
49.92327866990036
 31
0.0
100
AcDbText
 73
     1
  0
TEXT
  5
5B3
330
21
100
AcDbEntity
  8
0
100
AcDbText
 10
64.10955022000053
 20
51.91378071335095
 30
0.0
 40
1.0
  1
PWR Input 12..24V DC
 11
64.10955022000053
 21
51.61773705714359
 31
0.0
100
AcDbText
 73
     1
  0
TEXT
  5
5B4
330
21
100
AcDbEntity
  8
0
100
AcDbText
 10
64.10955022000053
 20
50.21932232610772
 30
0.0
 40
1.0
  1
for e:bus2 only 24V DC
 11
64.10955022000053
 21
49.92327866990036
 31
0.0
100
AcDbText
 73
     1
  0
LINE
  5
5B5
330
21
100
AcDbEntity
  8
0
 62
     7
370
    -3
100
AcDbLine
 10
42.32320000000072
 20
33.84019386073624
 30
0.0
 11
42.32320000000072
 21
48.84019386073624
 31
0.0
  0
LINE
  5
5B6
330
21
100
AcDbEntity
  8
0
 62
     7
370
    -3
100
AcDbLine
 10
42.32320000000072
 20
48.84019386073624
 30
0.0
 11
58.40359902988166
 21
48.84019386073624
 31
0.0
  0
LINE
  5
5B7
330
21
100
AcDbEntity
  8
0
 62
     7
370
    -3
100
AcDbLine
 10
58.40359902988166
 20
48.84019386073624
 30
0.0
 11
58.40359902988166
 21
33.84019386073624
 31
0.0
  0
LINE
  5
5B8
330
21
100
AcDbEntity
  8
0
 62
     7
370
    -3
100
AcDbLine
 10
58.40359902988166
 20
33.84019386073624
 30
0.0
 11
42.32320000000072
 21
33.84019386073624
 31
0.0
  0
LINE
  5
5B9
330
21
100
AcDbEntity
  8
0
 62
     7
370
    -3
100
AcDbLine
 10
42.32320000000072
 20
45.26230271883151
 30
0.0
 11
58.40359902988166
 21
45.26230271883151
 31
0.0
  0
TEXT
  5
5BA
330
21
100
AcDbEntity
  8
0
100
AcDbText
 10
48.88355517593546
 20
46.3862375169436
 30
0.0
 40
1.0
  1
e:net
 72
     1
 11
50.43710224278402
 21
46.09019386073624
 31
0.0
100
AcDbText
 73
     1
  0
ENDSEC
  0
SECTION
  2
OBJECTS
  0
DICTIONARY
  5
A
330
0
100
AcDbDictionary
281
     1
  3
ACAD_COLOR
350
35
  3
ACAD_GROUP
350
33
  3
ACAD_LAYOUT
350
26
  3
ACAD_MATERIAL
350
D
  3
ACAD_MLEADERSTYLE
350
5BD
  3
ACAD_MLINESTYLE
350
1E
  3
ACAD_PLOTSETTINGS
350
34
  3
ACAD_PLOTSTYLENAME
350
B
  3
ACAD_SCALELIST
350
3D
  3
ACAD_VISUALSTYLE
350
36
  3
ACDBHEADERROUNDTRIPXREC
350
5C4
  3
AcDbVariableDictionary
350
5BB
  0
DICTIONARY
  5
5C7
330
32
100
AcDbDictionary
280
     1
281
     1
  3
ACAD_XREC_ROUNDTRIP
360
5C8
  0
DICTIONARY
  5
2
330
1
100
AcDbDictionary
280
     1
281
     1
  3
ACAD_LAYERSTATES
360
3
  3
ACLYDICTIONARY
360
4
  0
DICTIONARY
  5
8
330
7
100
AcDbDictionary
280
     1
281
     1
  3
ADSK_XREC_LAYER_RECONCILED
360
9
  0
DICTIONARY
  5
22
330
21
100
AcDbDictionary
280
     1
281
     1
  3
ACAD_SORTENTS
360
23
  0
DICTIONARY
  5
35
102
{ACAD_REACTORS
330
A
102
}
330
A
100
AcDbDictionary
281
     1
  0
DICTIONARY
  5
33
102
{ACAD_REACTORS
330
A
102
}
330
A
100
AcDbDictionary
281
     1
  0
DICTIONARY
  5
26
102
{ACAD_REACTORS
330
A
102
}
330
A
100
AcDbDictionary
281
     1
  3
Layout2
350
2F
  3
Model
350
27
  0
DICTIONARY
  5
D
102
{ACAD_REACTORS
330
A
102
}
330
A
100
AcDbDictionary
281
     1
  3
ByBlock
350
60
  3
ByLayer
350
19
  3
Global
350
E
  0
DICTIONARY
  5
5BD
102
{ACAD_REACTORS
330
A
102
}
330
A
100
AcDbDictionary
281
     1
  0
DICTIONARY
  5
1E
102
{ACAD_REACTORS
330
A
102
}
330
A
100
AcDbDictionary
281
     1
  3
Standard
350
1F
  0
DICTIONARY
  5
34
102
{ACAD_REACTORS
330
A
102
}
330
A
100
AcDbDictionary
281
     1
  0
ACDBDICTIONARYWDFLT
  5
B
102
{ACAD_REACTORS
330
A
102
}
330
A
100
AcDbDictionary
281
     1
  3
Normal
350
C
100
AcDbDictionaryWithDefault
340
C
  0
DICTIONARY
  5
3D
102
{ACAD_REACTORS
330
A
102
}
330
A
100
AcDbDictionary
281
     1
  3
*A1
350
4F
  3
*A10
350
58
  3
*A11
350
59
  3
*A12
350
5A
  3
*A13
350
5B
  3
*A14
350
5C
  3
*A15
350
5D
  3
*A16
350
5E
  3
*A17
350
5F
  3
*A2
350
50
  3
*A3
350
51
  3
*A4
350
52
  3
*A5
350
53
  3
*A6
350
54
  3
*A7
350
55
  3
*A8
350
56
  3
*A9
350
57
  0
DICTIONARY
  5
36
102
{ACAD_REACTORS
330
A
102
}
330
A
100
AcDbDictionary
281
     1
  3
2dWireframe
350
3A
  3
Realistic
350
37
  3
Wireframe
350
38
  0
DICTIONARY
  5
5C4
102
{ACAD_REACTORS
330
A
102
}
330
A
100
AcDbDictionary
281
     1
  3
COLORDICT
350
5C5
  3
MATERIALDICT
350
5C6
  0
DICTIONARY
  5
5BB
102
{ACAD_REACTORS
330
A
102
}
330
A
100
AcDbDictionary
281
     1
  3
CANNOSCALE
350
5C9
  3
DIMASSOC
350
5C2
  3
HIDETEXT
350
5C3
  3
MSLTSCALE
350
5CA
  3
PSOLHEIGHT
350
5BF
  3
PSOLWIDTH
350
5BE
  0
XRECORD
  5
5C8
102
{ACAD_REACTORS
330
5C7
102
}
330
5C7
100
AcDbXrecord
280
     1
102
VTR_0.000_0.000_1.000_1.000_VISUALSTYLE
340
3A
102
VTR_0.000_0.000_1.000_1.000_GRIDDISPLAY
 70
     3
102
VTR_0.000_0.000_1.000_1.000_GRIDMAJOR
 70
     5
102
VTR_0.000_0.000_1.000_1.000_DEFAULTLIGHTING
280
     1
102
VTR_0.000_0.000_1.000_1.000_DEFAULTLIGHTINGTYPE
 70
     1
102
VTR_0.000_0.000_1.000_1.000_BRIGHTNESS
141
0.0
102
VTR_0.000_0.000_1.000_1.000_CONTRAST
142
0.0
  0
DICTIONARY
  5
3
102
{ACAD_REACTORS
330
2
102
}
330
2
100
AcDbDictionary
281
     1
  0
DICTIONARY
  5
4
102
{ACAD_REACTORS
330
2
102
}
330
2
100
AcDbDictionary
281
     1
1001
ACAD
1000
All
  0
XRECORD
  5
9
102
{ACAD_REACTORS
330
8
102
}
330
8
100
AcDbXrecord
280
     1
290
     0
  0
SORTENTSTABLE
  5
23
102
{ACAD_REACTORS
330
22
102
}
330
22
100
AcDbSortentsTable
330
21
  0
LAYOUT
  5
2F
102
{ACAD_REACTORS
330
26
102
}
330
26
100
AcDbPlotSettings
  1

  2
none_device
  4
ISO_A4_(210.00_x_297.00_MM)
  6

 40
7.5
 41
20.0
 42
7.5
 43
20.0
 44
210.0
 45
297.0
 46
0.0
 47
0.0
 48
0.0
 49
0.0
140
0.0
141
0.0
142
1.0
143
1.0
 70
   688
 72
     1
 73
     1
 74
     5
  7

 75
    16
147
1.0
148
0.0
149
0.0
100
AcDbLayout
  1
Layout2
 70
     1
 71
     1
 10
-20.0
 20
-7.5
 11
277.0
 21
202.5
 12
0.0
 22
0.0
 32
0.0
 14
15.0979381443299
 24
17.31672394043528
 34
0.0
 15
241.9020618556701
 25
177.6832760595647
 35
0.0
146
0.0
 13
0.0
 23
0.0
 33
0.0
 16
1.0
 26
0.0
 36
0.0
 17
0.0
 27
1.0
 37
0.0
 76
     0
330
2C
  0
LAYOUT
  5
27
102
{ACAD_REACTORS
330
26
102
}
102
{ACAD_XDICTIONARY
360
28
102
}
330
26
100
AcDbPlotSettings
  1

  2
none_device
  4
ISO_A4_(210.00_x_297.00_MM)
  6

 40
7.5
 41
20.0
 42
7.5
 43
20.0
 44
210.0
 45
297.0
 46
11.54999923706055
 47
-13.65000009536743
 48
0.0
 49
0.0
140
0.0
141
0.0
142
1.0
143
8.704084754739808
 70
 11952
 72
     1
 73
     0
 74
     0
  7

 75
     0
147
0.1148885871608098
148
0.0
149
0.0
100
AcDbLayout
  1
Model
 70
     1
 71
     0
 10
0.0
 20
0.0
 11
12.0
 21
9.0
 12
0.0
 22
0.0
 32
0.0
 14
1813.168022314897
 24
527.115773456012
 34
-76.97363477640508
 15
10381.3994357504
 25
5070.926163757304
 35
42.0000000000003
146
0.0
 13
0.0
 23
0.0
 33
0.0
 16
1.0
 26
0.0
 36
0.0
 17
0.0
 27
1.0
 37
0.0
 76
     0
330
21
331
39
1001
ACAD_PSEXT
1000
None
1000
None
1000
Not applicable
1000
The layout will not be plotted unless a new plotter configuration name is selected.
1070
     0
  0
MATERIAL
  5
60
102
{ACAD_REACTORS
330
D
102
}
102
{ACAD_XDICTIONARY
360
61
102
}
330
D
100
AcDbMaterial
  1
ByBlock
 73
     2
 78
     2
172
     2
176
     2
270
     2
274
     2
  0
MATERIAL
  5
19
102
{ACAD_REACTORS
330
D
102
}
102
{ACAD_XDICTIONARY
360
1A
102
}
330
D
100
AcDbMaterial
  1
ByLayer
 73
     2
 78
     2
172
     2
176
     2
270
     2
274
     2
  0
MATERIAL
  5
E
102
{ACAD_REACTORS
330
D
102
}
102
{ACAD_XDICTIONARY
360
F
102
}
330
D
100
AcDbMaterial
  1
Global
 73
     2
 43
0.0007999999797903
 43
0.0
 43
0.0
 43
0.0
 43
0.0
 43
0.0007999999797903
 43
0.0
 43
0.0
 43
0.0
 43
0.0
 43
1.0
 43
0.0
 43
0.0
 43
0.0
 43
0.0
 43
1.0
 78
     2
172
     2
 49
0.0007999999797903
 49
0.0
 49
0.0
 49
0.0
 49
0.0
 49
0.0007999999797903
 49
0.0
 49
0.0
 49
0.0
 49
0.0
 49
1.0
 49
0.0
 49
0.0
 49
0.0
 49
0.0
 49
1.0
176
     2
142
0.0007999999797903
142
0.0
142
0.0
142
0.0
142
0.0
142
0.0007999999797903
142
0.0
142
0.0
142
0.0
142
0.0
142
1.0
142
0.0
142
0.0
142
0.0
142
0.0
142
1.0
270
     2
144
0.0007999999797903
144
0.0
144
0.0
144
0.0
144
0.0
144
0.0007999999797903
144
0.0
144
0.0
144
0.0
144
0.0
144
1.0
144
0.0
144
0.0
144
0.0
144
0.0
144
1.0
274
     2
1001
ACAD
1070
    -1
1070
     3
1070
     0
1000

1071
        0
1070
     0
  0
MLINESTYLE
  5
1F
102
{ACAD_REACTORS
330
1E
102
}
330
1E
100
AcDbMlineStyle
  2
STANDARD
 70
     0
  3

 62
   256
 51
90.0
 52
90.0
 71
     2
 49
0.5
 62
   256
  6
BYLAYER
 49
-0.5
 62
   256
  6
BYLAYER
  0
ACDBPLACEHOLDER
  5
C
102
{ACAD_REACTORS
330
B
102
}
330
B
  0
SCALE
  5
4F
102
{ACAD_REACTORS
330
3D
102
}
330
3D
100
AcDbScale
 70
     0
300
1:1
140
1.0
141
1.0
290
     1
  0
SCALE
  5
58
102
{ACAD_REACTORS
330
3D
102
}
330
3D
100
AcDbScale
 70
     0
300
1:40
140
1.0
141
40.0
290
     0
  0
SCALE
  5
59
102
{ACAD_REACTORS
330
3D
102
}
330
3D
100
AcDbScale
 70
     0
300
1:50
140
1.0
141
50.0
290
     0
  0
SCALE
  5
5A
102
{ACAD_REACTORS
330
3D
102
}
330
3D
100
AcDbScale
 70
     0
300
1:100
140
1.0
141
100.0
290
     0
  0
SCALE
  5
5B
102
{ACAD_REACTORS
330
3D
102
}
330
3D
100
AcDbScale
 70
     0
300
2:1
140
2.0
141
1.0
290
     0
  0
SCALE
  5
5C
102
{ACAD_REACTORS
330
3D
102
}
330
3D
100
AcDbScale
 70
     0
300
4:1
140
4.0
141
1.0
290
     0
  0
SCALE
  5
5D
102
{ACAD_REACTORS
330
3D
102
}
330
3D
100
AcDbScale
 70
     0
300
8:1
140
8.0
141
1.0
290
     0
  0
SCALE
  5
5E
102
{ACAD_REACTORS
330
3D
102
}
330
3D
100
AcDbScale
 70
     0
300
10:1
140
10.0
141
1.0
290
     0
  0
SCALE
  5
5F
102
{ACAD_REACTORS
330
3D
102
}
330
3D
100
AcDbScale
 70
     0
300
100:1
140
100.0
141
1.0
290
     0
  0
SCALE
  5
50
102
{ACAD_REACTORS
330
3D
102
}
330
3D
100
AcDbScale
 70
     0
300
1:2
140
1.0
141
2.0
290
     0
  0
SCALE
  5
51
102
{ACAD_REACTORS
330
3D
102
}
330
3D
100
AcDbScale
 70
     0
300
1:4
140
1.0
141
4.0
290
     0
  0
SCALE
  5
52
102
{ACAD_REACTORS
330
3D
102
}
330
3D
100
AcDbScale
 70
     0
300
1:5
140
1.0
141
5.0
290
     0
  0
SCALE
  5
53
102
{ACAD_REACTORS
330
3D
102
}
330
3D
100
AcDbScale
 70
     0
300
1:8
140
1.0
141
8.0
290
     0
  0
SCALE
  5
54
102
{ACAD_REACTORS
330
3D
102
}
330
3D
100
AcDbScale
 70
     0
300
1:10
140
1.0
141
10.0
290
     0
  0
SCALE
  5
55
102
{ACAD_REACTORS
330
3D
102
}
330
3D
100
AcDbScale
 70
     0
300
1:16
140
1.0
141
16.0
290
     0
  0
SCALE
  5
56
102
{ACAD_REACTORS
330
3D
102
}
330
3D
100
AcDbScale
 70
     0
300
1:20
140
1.0
141
20.0
290
     0
  0
SCALE
  5
57
102
{ACAD_REACTORS
330
3D
102
}
330
3D
100
AcDbScale
 70
     0
300
1:30
140
1.0
141
30.0
290
     0
  0
VISUALSTYLE
  5
3A
102
{ACAD_REACTORS
330
36
102
}
102
{ACAD_XDICTIONARY
360
5D2
102
}
330
36
100
AcDbVisualStyle
  2
2dWireframe
 70
     4
 71
     0
 72
     2
 73
     1
 90
        0
 40
0.6
 41
30.0
 62
     5
 63
     7
 74
     1
 91
        4
 64
     7
 65
   257
 75
     1
175
     1
 42
1.0
 92
        0
 66
   257
 43
1.0
 76
     1
 77
     6
 78
     2
 67
     7
 79
     5
170
     0
171
     0
290
     0
174
     0
 93
        1
 44
0.0
173
     0
291
     0
 45
0.0
1001
ACAD
1000
AcDbSavedByObjectVersion
1070
     0
  0
VISUALSTYLE
  5
37
102
{ACAD_REACTORS
330
36
102
}
102
{ACAD_XDICTIONARY
360
5CE
102
}
330
36
100
AcDbVisualStyle
  2
Realistic
 70
     8
 71
     2
 72
     3
 73
     0
 90
        2
 40
0.6
 41
30.0
 62
     5
 63
     7
 74
     0
 91
        0
 64
     7
 65
   257
 75
     1
175
     1
 42
1.0
 92
        8
 66
   257
 43
1.0
 76
     1
 77
     6
 78
     2
 67
     7
 79
     3
170
     0
171
     0
290
     0
174
     0
 93
       13
 44
0.0
173
     0
291
     0
 45
0.0
1001
ACAD
1000
AcDbSavedByObjectVersion
1070
     0
  0
VISUALSTYLE
  5
38
102
{ACAD_REACTORS
330
36
102
}
102
{ACAD_XDICTIONARY
360
5D0
102
}
330
36
100
AcDbVisualStyle
  2
Wireframe
 70
     5
 71
     0
 72
     2
 73
     0
 90
        0
 40
0.6
 41
30.0
 62
     5
 63
     7
 74
     1
 91
        4
 64
     7
 65
   257
 75
     1
175
     1
 42
1.0
 92
        0
 66
   257
 43
1.0
 76
     1
 77
     6
 78
     2
 67
     7
 79
     3
170
     0
171
     0
290
     0
174
     0
 93
        1
 44
0.0
173
     0
291
     0
 45
0.0
1001
ACAD
1000
AcDbSavedByObjectVersion
1070
     0
  0
XRECORD
  5
5C5
102
{ACAD_REACTORS
330
5C4
102
}
330
5C4
100
AcDbXrecord
280
     1
340
35
  0
XRECORD
  5
5C6
102
{ACAD_REACTORS
330
5C4
102
}
330
5C4
100
AcDbXrecord
280
     1
340
D
  0
DICTIONARYVAR
  5
5C9
102
{ACAD_REACTORS
330
5BB
102
}
330
5BB
100
DictionaryVariables
280
     0
  1
1:1
  0
DICTIONARYVAR
  5
5C2
102
{ACAD_REACTORS
330
5BB
102
}
330
5BB
100
DictionaryVariables
280
     0
  1
2
  0
DICTIONARYVAR
  5
5C3
102
{ACAD_REACTORS
330
5BB
102
}
330
5BB
100
DictionaryVariables
280
     0
  1
1
  0
DICTIONARYVAR
  5
5CA
102
{ACAD_REACTORS
330
5BB
102
}
330
5BB
100
DictionaryVariables
280
     0
  1
1
  0
DICTIONARYVAR
  5
5BF
102
{ACAD_REACTORS
330
5BB
102
}
330
5BB
100
DictionaryVariables
280
     0
  1
80.000000
  0
DICTIONARYVAR
  5
5BE
102
{ACAD_REACTORS
330
5BB
102
}
330
5BB
100
DictionaryVariables
280
     0
  1
5.000000
  0
DICTIONARY
  5
28
330
27
100
AcDbDictionary
280
     1
281
     1
  3
AcPublish_PlotSettingsOverride
360
29
  0
DICTIONARY
  5
61
330
60
100
AcDbDictionary
280
     1
281
     1
  3
ACAD_XREC_ROUNDTRIP
360
5CD
  3
FBXASSET
360
62
  0
DICTIONARY
  5
1A
330
19
100
AcDbDictionary
280
     1
281
     1
  3
ACAD_XREC_ROUNDTRIP
360
5CB
  3
FBXASSET
360
1B
  0
DICTIONARY
  5
F
330
E
100
AcDbDictionary
280
     1
281
     1
  3
ACAD_XREC_ROUNDTRIP
360
5CC
  3
FBXASSET
360
10
  0
DICTIONARY
  5
5D2
330
3A
100
AcDbDictionary
280
     1
281
     1
  3
ACAD_XREC_ROUNDTRIP
360
5D3
  0
DICTIONARY
  5
5CE
330
37
100
AcDbDictionary
280
     1
281
     1
  3
ACAD_XREC_ROUNDTRIP
360
5CF
  0
DICTIONARY
  5
5D0
330
38
100
AcDbDictionary
280
     1
281
     1
  3
ACAD_XREC_ROUNDTRIP
360
5D1
  0
PLOTSETTINGS
  5
29
102
{ACAD_REACTORS
330
28
330
26
102
}
330
28
100
AcDbPlotSettings
  1

  2
none_device
  4
ISO_A4_(210.00_x_297.00_MM)
  6

 40
7.5
 41
20.0
 42
7.5
 43
20.0
 44
210.0
 45
297.0
 46
11.54999923706055
 47
-13.65000009536743
 48
-348.7833231427103
 49
1353.039955724496
140
142.6483611688727
141
1495.266804985138
142
1.0
143
8.704084754739808
 70
 11952
 72
     1
 73
     0
 74
     0
  7

 75
     0
147
0.1148885871608098
148
0.0
149
0.0
1001
ACAD_PSEXT
1000
<keine>
1000
<keine>
1000
Nicht anwendbar
1000
Das Layout wird erst geplottet, wenn ein neuer Plotter-Konfigurationsname ausgewählt wird.
1070
     0
1001
PLOTTRANSPARENCY
1071
        0
  0
XRECORD
  5
5CD
102
{ACAD_REACTORS
330
61
102
}
330
61
100
AcDbXrecord
280
     1
102
MATERIAL
148
0.0
149
0.0
149
0.0
 93
        0
 94
       63
282
     0
 72
     1
 77
     1
171
     1
175
     1
179
     1
273
     0
  0
XRECORD
  5
62
102
{ACAD_REACTORS
330
61
102
}
330
61
100
AcDbXrecord
280
     1
 70
     1
 90
429727718
  1
D62C5603-E3A1-4AEA-B7FB-FE5D8D0755AF
310
504B03040A0000080000CC70623B3DEE336E79000000790000001B0000006175746F6465736B2D64657369676E2D7061636B6167652E786D6C3C3F786D6C2076657273696F6E3D22312E302220656E636F64696E673D227574662D3822203F3E3C666F726D6174733E3C666F726D61743E687474703A2F2F736368656D612E
310
6175746F6465736B2E636F6D2F64657369676E2D7061636B6167652F323030393C2F666F726D61743E3C2F666F726D6174733E504B0304140006080800CC70623BD486FD9CA0000000F4000000130000005B436F6E74656E745F54797065735D2E786D6C7D8EC10E82300C865F65E91D8A1E8C310C0EEA1BF002731658846E
310
D98AC1B77784ABF1D8FE5FBFBF75BBCE937A534CCEB38643598122B6FEE978D0B0485F9C41B54DDD7D022595594E1A469170414C76A4D9A4D207E29CF43ECE46F218070CC6BECC4078ACAA135ACF422C856C0E68EA1BF5669944DDD7BCDE7B1F8E415D77AECB980613C2E4AC91FC167A2B244592486606FC29C8FD7F045B9A
310
EF7053A7E60B504B0304140006080800CC70623B853B8169EB0000007C01000008000000636F72652E786D6C8D90416EC3201045AF62CDB6C206821CC7C244919D9CA01740401C94182C03558F5F9C3852BBEB6A467FFE9B197D7EFC9E1EC5975982F5AE035262288C535E5B377690E21535501C055FBC8FBF6C503839990E
310
5619041F179FE64D52DE45E362569DD7661365082642A11EB9E920A89B99642953CC8E702F67A9EE7234257977194EC9EAE275C4EABCCF5EAD5940D4AC6F0E35A568B8F43562CD7046CD199FD07E60174276A7BE677B5EADB0E0D14EEFFB6A31321A0D82627C4084204C3F096B71DD52F6819B16635EADF63F509AF53FA164
310
5DDCD1EDDD17164090FCC8732078B56691CB33A85CD7DCC40F504B0304140006080800CC70623B55019EA25F0000007C00000007000000636E782E786D6C4DCB3B0E80201045D1AD90E915ED2CF8AC45050C11660C8261F98AB1B07AC9C97D42D718D865D3E909258CFD00CCE24AC6E326A164D74DC0B4128928FF32603847
310
2BA13128B1252AC747C6BAB984FC68F0B87FE8960A5C09FE86CFB69FBA01504B0304140006080800CC70623BDBABAAF470010000D40300000C0000006662782F636F72652E786D6CC553D16E823014FD95A6AF4B694182CC941A83FA05FB810A9511A125A5257EFE2E82712ECEB8A7F100CD39F7F69E734AF9FADC366850B6
310
AF8DCE7018308C942E4C59EB2AC3DE1D498AD15A706B8CFB56869196ADCAF00863C12B6B7C374385D14E6907A836A59A41D9F7CA615434B0C8705F7CAA5606D23BA8E84F41278B93AC54100640439DE0BDB320004D43C63716C7C399D30917DCFBBA9CD9BA8469F5B156168B24CED3F7248AC8769F27244EB73B92EED8862C
310
B7F13E0C179B3C8F979C8ECD82BBBABDAA2BAC924E9558448CBD9330242CFA08E3154B5651FCC6D215639C8EE5774DBE2B5F6CF2B5768B68963BB5F5588420E442FC700B1139D4CB01F450C1E918227C2E09DF070D8140C84E1E9AAB8F1340832A9CB13130A5F1376A908D57309505ECF2A0DF179C4E9D30F5B239B87E3823
310
7A79C6F31DE1A8A5AEC08474B03C7837EAE4938639B44E5932B833D2C6B6B279CDC613877FA26EE21F4A2A4C63EC7F29A2F301D1F9F7A0E37D145F504B0304140006080800CC70623B9C113CC27E0000009D0000000B0000006662782F636E782E786D6C4DCCDF0A83201C86E15B91DFB94BFB330DD428C8FB886521330DA7
310
6397BF1A1DECE883878F57749FCDA1B7892F1BBC047A23808C7F84D9FA55424E0BE6803A256208E9EF06C84F9B91703228B1C690F78B66B34CD9A5439DF5CF0BFBF65E35BCA1B8D6A5C6F540381E886698B5741C695F9503EBA150A2F8958E3DC3EA0B504B0304140006080800CC70623B7DF2F77C2A010000120200003100
310
00006662782F41393633353835312D344632462D344230382D423046372D3739314545314133324237412F636F72652E786D6C8D51DB8EC22014FC15C2939B0D2DB4B45643319AE817EC0F6041255A68B86CFCFC856D4D76DF7CE190393373060EDB3DC707F856CE6B6B7A480A0C81328395DA5C7B18C3057510EC3873D686
310
3F34088C18550F330C39BB3A1BA7051AAC09CA84841A2BD5020AEF55806078A44B0FFD7053A328440C89E1EFC52486BBB8AA8214A99D789CF9E05200300FC927E4FB4D5B375D43103D5527440FB843077C5AA3F5861C8F645F5787F59E95B390B318B55CE45AA638FAA2957BD7248B390B7A7CC51F9C124149C82B8C378810
310
84AB2F42B7B8DD56F413775B8C5999E9FF4471926F8AA236A1AE96B8B3CC434E5839373893369E1FAF30EA395917409EB7F26AF8801C171837A4A6AC9C89E9F9C9B1A58BA30FD6A5EF5DDDCF894B9AD9B6A59C957943A9FCAE2FD5BC4DFE03504B0304140006080800CC70623BAD7543B64E01000033030000300000006662
310
782F41393633353835312D344632462D344230382D423046372D3739314545314133324237412F636E782E786D6CD593CD6EC32010845F0571AD6CE3D48AD20813A9873E410FBD12D82434182C7EAAE6EDBB2424CD25871E7B41D6EC30B3FA84F9E67BB2E40B4234DE8DB46F1925E094D7C6ED479AD3AE5951B2113C789FEE
310
6C943839C1488B4C05DF079FE72A69D8C96C13AAD6B8631503449F83828872B949AC57D26200B826A308D316B4064D6E46FCDA41C05550DC9E483A00797BFD207EFB092A45DE9514C1BBD22178396BD39D891265658C238DEA00936C654E5E433CB65A26D9F6EDB5EBC14EBF49A45CB856E66048291F6939A9A81BB5C89177
310
38143CA680F4AA299D66A042CEB3354A2684DC9D8D178FE0D9B8B41CAAD720F880EE7EF93C0C18769E099ECC04D5A102C8049A8A05632F4DDF376CF1DE0F6BB65C2F8627B65A33C6BB62177CEBBDAD973006829F89F22E814B54F4BC2BE347F8AA8F681390B50FA73F804400B5F542E796F19FF974E7F78DB802FE05E20750
310
4B0304140006080800CC70623BE75B7789680500003C100000340000006662782F41393633353835312D344632462D344230382D423046372D3739314545314133324237412F6F626A656374732E786D6CAD575B8F9B3818FD2B887D06C22499CB8AA1CA655245D5B455A356FB305264C061D8018C6C3393D95FBFC7600890
310
A4CD5EF210B0B1BFEBF98E3F7B1FF6596ABC522E1296DF9BAE3D320D9A872C4AF2F8DE2CE5CEBA358D0FBEC719939D65A691938CDE9B6ADAF4BD98B3B2D05311DD91329583D9D5FC0F438434A7A611A644887B5384CF34233629258BA878B12322891DEFF6B66BD70BFB62634E8AE781D082709A4B588AF91C528CDA28B73F
310
1C998EEF39EABBEFA97FBD6A7C7E9553F9D3D79FE442923C3C523610337627CB87ABE99D359D4CC6D6E4FACAB5E6ABF9D2726FC6A3C5F56271377BB88362213924694B38DD99FE47C48627A1E7D49F5A8BB5E1A74C0A599ED3B0F21F1E56366B89112D681E218F0915D0D6F17AD41FBA2A369DCF6335D62ABBD39779D5DDD1
310
11D4D8DE3CBB96B2E04FB8202E41051754A1AA8E8F76B4C6DFE810B580B1547F4B84911149794252234D024EF8BBE963A95AE27B3D310A9D5C215C7960FAEE415ED75694C6AFB17BCACA5D99A60A9AA65F217B0BFC53292ACB92BF283FAD0D3621576592CB5BED907C2FA8E9DF794E35E97BEA31BED21FEB401ABB94C44839
310
DCACBF0E1C5DA8DA5B2F4DFFD32AD86F543D9E565E7056502E157C00AD2671CD534549AB752FCA9CDA00677A313F04E51B22FF19E57B300579E3C97EB29F682D92935CEC18CF901B7B54FD8C51F362B56FC72FE0B3C1EAE335EDCCBF5AEC39ADB17DC238973F804BA5E6F6BFE7AF1FB32E523BE9F3BD571418E3631DCA4D48
310
5250CF639223210A9446CA30052EDF057BD35F8329C1ECD84552BF0DC8D18BE7BCE23BFE6BD960AB4A7DE79923A103BEBD80F911CBAA2C60DB19B01CF164A5583B772EE6D3FFA56666CBCDA74DC97724A48F9A58967497E489C4D979006FD7A05E227A1EBDD0F737C623387A9C844D3709995625106D157315F8B8392CD4E0
310
A0B9A720C4BE9829CEF37EA1E13111214D53925356365ADA634861B52519DD27A00AEB808EAF0628E6F435519D446F45CF2C9CF5214F0A15B2F6D06B79DA3EE3CBF7F56780D2F4E7EF73A0F5E5B02A38D07DC852C6B7C1FBB6664213E0C39E3EBA7FF4E1AD23EA2829407C85E586727488B751B2DB9502BC7B228A3FD68B6E
310
A65A22397E690AA8D158D7E404EC8CDA235CC3B7D1898680131CEC2CDF2638C65196279577750F15884AEE19F94199155B92B13297978469D4F8D358DF0AEF7631E28DC8F0D9F437D5D39A83B2231A1D52D543813A824EF8D44BCFF2FA6A31BD1E8DAD87F1CCB526B3879935BF59CDADD5C37479BB1CDD4CA7B3556B516589
310
EF352754B706114D9C885EC9131DE6EFEB43D99AFE2391C2F958179413D7CFEF6B1B6DB1E7600F00DE6E5C67454A339A4BA2E0FBA85ED26F045D454F463DBFCE484C2F90F2E5E3666003662ED8F755951A7D1BECD5B30B550B2785C8E7320B7292A4838DDA71BBC863ED7613CAF659337A3354231D4FF4A182A54904C2898C
310
98B28C4AD0CE056CCF332A80986E571EE9DBC305BB5FEB7E509220A58D25CF042D712A806AC0AD0C657FDEF80D2D9CEAA2EE4D1C76F60BFE74219A06527D6F82DF6412526107381E55E353090704D085B52408A8913C4ED159D79BDA71BB4BC506F4831350EB6F975CD22D69BF7AC49B91A2C0A9DDA3D5CA36AD20FC478E37
310
E61844E2352865EBCB61A275A65283CAAA9DD27703B4102F5AF51EF5F573B75CBB5AD38BC845F7A49F82A0966A49C2E3EA5EA0ECD326CD965F1DB402C6FA8B51A4658C5C5E2EC9E214602E55810345408596591009A82E7E7FFACA19EEA299B14A0081A705CB3296EBC14CDF658DCD336EA6D1136881AAEB87B81AB9EE53D5
310
F5EB8BC8362082DA24122F98680A4E7930C01A0079749CEA14382A0783E5EBA5A10F8C098456A03D6A4AEB6BB881E2513747552A5DB22C7EDAF83BD5528081A365F7FF06504B0304140006080000CC70623B000000000000000000000000350000006662782F41393633353835312D344632462D344230382D423046372D37
310
39314545314133324237412F76657274696365732E62696E504B0304140006080800CC70623BF270F1330600000004000000360000006662782F41393633353835312D344632462D344230382D423046372D3739314545314133324237412F747269616E676C65732E62696E636660600000504B0304140006080000CC7062
310
3B000000000000000000000000370000006662782F41393633353835312D344632462D344230382D423046372D3739314545314133324237412F617474726962757465732E62696E504B0304140006080800CC70623B08DA0BD19000000041010000360000006662782F41393633353835312D344632462D344230382D4230
310
46372D3739314545314133324237412F6469726563746F72792E786D6C858F410AC3201045AF22B36F53E9A60B35CBEEBAE80D244E44489C6234F4F835464A48035D0DF398FF9F8AF63D0E6CC63039F212F8F9020C7D47C6792B21C5FE7403D62A1188E2E60C98D7234A5830286103A55745067B9D86B8A3CF9C7F90C11DE6
310
07FB144396D7B6A82D282E9A152AD114D5EF2CB866EEE831B8EEA07A7BB5A8D7D61A2BAAEB7FD5F70921FF497D00504B0304140006080800CC70623BEDD1DC58FD000000A00100003B0000006662782F41393633353835312D344632462D344230382D423046372D3739314545314133324237412F7265736F75726365732F
310
636F72652E786D6C8D504B6E833010BD0A9A6D65B00922041947112427E8052C33A156828DFCA97AFC9A40A576D7CDCCE87D344F8F9FBFE667F689CE6B6B3A6039850C8DB2A336530731DC4903D95970676DF82583CCC8193B5861107C72362E3BA4AC096842428D1D7107A5F7182053CF7474E0D507CE32973124857FE48B
310
540F3961CEF244279DE03EB81420DB9EAC1384436FA353E879B1B182C7A8C75DA3C7F453DF353A1075D537A7BA6464B8F535A99AE14A9A2BBD90E350DD183B5CFABE3AF262350B1EF4FC9351399401471025A527C218A1E53BAB5A5AB765F5469B96525EACF23FA6B88CFF34456DC2A1DCE36E360F82A5202F42F062ED2BAD
310
579969AFDD8A6F504B010214000A0000080000CC70623B3DEE336E79000000790000001B00000000000000000000000000000000006175746F6465736B2D64657369676E2D7061636B6167652E786D6C504B01021400140006080800CC70623BD486FD9CA0000000F40000001300000000000000000000000000B20000005B
310
436F6E74656E745F54797065735D2E786D6C504B01021400140006080800CC70623B853B8169EB0000007C010000080000000000000000000000000083010000636F72652E786D6C504B01021400140006080800CC70623B55019EA25F0000007C000000070000000000000000000000000094020000636E782E786D6C504B
310
01021400140006080800CC70623BDBABAAF470010000D40300000C00000000000000000000000000180300006662782F636F72652E786D6C504B01021400140006080800CC70623B9C113CC27E0000009D0000000B00000000000000000000000000B20400006662782F636E782E786D6C504B01021400140006080800CC70
310
623B7DF2F77C2A010000120200003100000000000000000000000000590500006662782F41393633353835312D344632462D344230382D423046372D3739314545314133324237412F636F72652E786D6C504B01021400140006080800CC70623BAD7543B64E010000330300003000000000000000000000000000D2060000
310
6662782F41393633353835312D344632462D344230382D423046372D3739314545314133324237412F636E782E786D6C504B01021400140006080800CC70623BE75B7789680500003C10000034000000000000000000000000006E0800006662782F41393633353835312D344632462D344230382D423046372D3739314545
310
314133324237412F6F626A656374732E786D6C504B01021400140006080000CC70623B0000000000000000000000003500000000000000000000000000280E00006662782F41393633353835312D344632462D344230382D423046372D3739314545314133324237412F76657274696365732E62696E504B01021400140006
310
080800CC70623BF270F133060000000400000036000000000000000000000000007B0E00006662782F41393633353835312D344632462D344230382D423046372D3739314545314133324237412F747269616E676C65732E62696E504B01021400140006080000CC70623B0000000000000000000000003700000000000000
310
000000000000D50E00006662782F41393633353835312D344632462D344230382D423046372D3739314545314133324237412F617474726962757465732E62696E504B01021400140006080800CC70623B08DA0BD1900000004101000036000000000000000000000000002A0F00006662782F41393633353835312D344632
310
462D344230382D423046372D3739314545314133324237412F6469726563746F72792E786D6C504B01021400140006080800CC70623BEDD1DC58FD000000A00100003B000000000000000000000000000E1000006662782F41393633353835312D344632462D344230382D423046372D3739314545314133324237412F7265
310
736F75726365732F636F72652E786D6C504B0506000000000E000E0080040000641100000000
  0
XRECORD
  5
5CB
102
{ACAD_REACTORS
330
1A
102
}
330
1A
100
AcDbXrecord
280
     1
102
MATERIAL
148
0.0
149
0.0
149
0.0
 93
        0
 94
       63
282
     0
 72
     1
 77
     1
171
     1
175
     1
179
     1
273
     0
  0
XRECORD
  5
1B
102
{ACAD_REACTORS
330
1A
102
}
330
1A
100
AcDbXrecord
280
     1
 70
     1
 90
429727718
  1
30362254-06B7-45E0-A893-8CFA70E3D6BC
310
504B03040A0000080000CC70623B3DEE336E79000000790000001B0000006175746F6465736B2D64657369676E2D7061636B6167652E786D6C3C3F786D6C2076657273696F6E3D22312E302220656E636F64696E673D227574662D3822203F3E3C666F726D6174733E3C666F726D61743E687474703A2F2F736368656D612E
310
6175746F6465736B2E636F6D2F64657369676E2D7061636B6167652F323030393C2F666F726D61743E3C2F666F726D6174733E504B0304140006080800CC70623BD486FD9CA0000000F4000000130000005B436F6E74656E745F54797065735D2E786D6C7D8EC10E82300C865F65E91D8A1E8C310C0EEA1BF002731658846E
310
D98AC1B77784ABF1D8FE5FBFBF75BBCE937A534CCEB38643598122B6FEE978D0B0485F9C41B54DDD7D022595594E1A469170414C76A4D9A4D207E29CF43ECE46F218070CC6BECC4078ACAA135ACF422C856C0E68EA1BF5669944DDD7BCDE7B1F8E415D77AECB980613C2E4AC91FC167A2B244592486606FC29C8FD7F045B9A
310
EF7053A7E60B504B0304140006080800CC70623B1EC5D7A3EB0000007C01000008000000636F72652E786D6C8D90416EC3201045AF82665B6103C6756C6122AB4D4ED00B204C5C94182C03558F5F9C3852BBEB6A467FFE9B197D71FC9E6FE8CBACC17AD7032D0820E3B41FAD9B7A48F1820F808E52ACDEC75F36404ECDA687
310
4D0629A6D5A76597B477D1B89855E747B38B2A041301E95B6E7A08FAD3CCAA50296647B8168BD2573599823EBB0CA76447F43862C7BCCF5EAC59410E4DDD9C7973C2755553CCCFA4C603E3040F1565ED3B1FDE4E432BCA0D9622DAF9795FAF464533826484B498524CD807E51D79ED187F21878E10516EF63F505AC67F42C9
310
BA58B1FDDD071640D2FCC87D2045B96591CB3DA85CB7DCE40F504B0304140006080800CC70623B55019EA25F0000007C00000007000000636E782E786D6C4DCB3B0E80201045D1AD90E915ED2CF8AC45050C11660C8261F98AB1B07AC9C97D42D718D865D3E909258CFD00CCE24AC6E326A164D74DC0B4128928FF32603847
310
2BA13128B1252AC747C6BAB984FC68F0B87FE8960A5C09FE86CFB69FBA01504B0304140006080800CC70623B8C9102E971010000D40300000C0000006662782F636F72652E786D6CC5535B6E833010BC8AE5DF0A6C08340F1947A84D4ED00B38C6A128602363A31CBFCB234A53A551FA553EC09AD9F5CE8C31DB9E9B1AF5CA
310
7695D1198E428A91D2D214952E33ECDD315861B4E5CC1AE3BE9561A445A3323CC098B3D21ADFCE9034DA29ED00D5A6503328BA4E398C640D8B0C77F253352214DE4145770A5B214FA2546114020D759C75CE8200340D19DE981F0F6746269C33EFAB6266AB02A655C74A59CCF365BADC27CB5D902ED22848F6340DF238A141
310
BE88E2F57B92BFEDF23523433367AE6A2EEAA455C2A902F398D2751045018D3FA264435F3771F242571B4A1919CA6F9A7C5B3CD9E42BED16F12C776AEB308F40C848FC700B1139D4891EF410CEC810227CC6846F8386402064270EF5C5C709A05E49676C024C61FC95EA45ED154CA5211D1FF4FB8291A913A68E9B83EBBB33
310
E2A7673CDE118E5AE8124C0807CB8377834E366998436B950D7A7746DAD846D4CFD978E0F04FD455FC5D49D2D4C6FE9722321F10997F0F32DC47FE05504B0304140006080800CC70623BFFEA85907E0000009D0000000B0000006662782F636E782E786D6C4DCCD10A83201886E15B91FFDC95D95A811AB6F23E625948A6C3
310
E9D8E5AF46073BFAE0E1E365ED67B3E8ADC3CB78C7815C7240DA3DFC64DCC221C519D7805AC182F7F1EF06C88D9BE6703008B6049F9E274D7A1E938DBB5AE3D6131B2589BA0D3D965551E0B2EA732C9B9A624AAEB41E3A557677029960D9AFB4EF11165F504B0304140006080800CC70623B4FEEA4082C0100001202000031
310
0000006662782F39464131463745442D413632322D343644302D413938332D3331353338454246344243312F636F72652E786D6C8D515B6EC32010BC0AE2AB55850DD871ED0813254D72825EC00192A2C460F1A872FC42ED48ED5F7E00CDCECCCEB26C731F6FE05B39AFADE921293004CA082BB5B9F43086336A21D870E6AC
310
0D7F68109861543DCC30E4ECE26C9C164858139409093556AA051CBC570102714B8F1E7AF1A5C6A11862480C7F2DA6415C878B2A4891CA89C7990F2E050073937C42DE1DB7E4F87ED8A36D4329AA9B3D46DBAEAD504556557BD81DEBDD0761E52CE42C462D17B996298E3E6BE59E35C962CE821E1FF18553435012728A7187
310
0841987E927A8D9B35ADDF70BBC6989599FE4F1427F9A4286A132ABAC49D651EF234CD5CE04CDA78BA3DC2A8FB645D00B9DF8B57E215725C60BCA2A463E54C4CE327C7A65E1C7DB02E7DEFCBF594B864C5CA6CDBD49C957943E9FA5D5FBAF336F90F504B0304140006080800CC70623BAD7543B64E01000033030000300000
310
006662782F39464131463745442D413632322D343644302D413938332D3331353338454246344243312F636E782E786D6CD593CD6EC32010845F0571AD6CE3D48AD20813A9873E410FBD12D82434182C7EAAE6EDBB2424CD25871E7B41D6EC30B3FA84F9E67BB2E40B4234DE8DB46F1925E094D7C6ED479AD3AE5951B2113C
310
789FEE6C943839C1488B4C05DF079FE72A69D8C96C13AAD6B8631503449F83828872B949AC57D26200B826A308D316B4064D6E46FCDA41C05550DC9E483A00797BFD207EFB092A45DE9514C1BBD22178396BD39D891265658C238DEA00936C654E5E433CB65A26D9F6EDB5EBC14EBF49A45CB856E66048291F6939A9A81BB5
310
C8917738143CA680F4AA299D66A042CEB3354A2684DC9D8D178FE0D9B8B41CAAD720F880EE7EF93C0C18769E099ECC04D5A102C8049A8A05632F4DDF376CF1DE0F6BB65C2F8627B65A33C6BB62177CEBBDAD973006829F89F22E814B54F4BC2BE347F8AA8F681390B50FA73F804400B5F542E796F19FF974E7F78DB802FE05
310
E207504B0304140006080800CC70623B16AB87BA640500003C100000340000006662782F39464131463745442D413632322D343644302D413938332D3331353338454246344243312F6F626A656374732E786D6CAD575B6FA33818FD2B887DE6924B3BED8A326A92B68A663B534DD4D13E548A0C38942D60649B369D5FBFC7
310
600890A493BDE42160637FD7F31D7FF63E6FB3D478A55C242CBF3247B66B1A340F5994E4F19559CA8D75611A9F7D8F33263BCB4C232719BD32D5B4E97B316765A1A722BA21652A07B3B7B33F0D11D29C9A46981221AE4C113ED38CD8A4942CA2E2C58E882476BCD9DA23BB5ED8171B73523C0F841684D35CC252CCE79062D4
310
468DFA43D7747CCF51DF7D4FFDEB5593E3AB9CCA9FBEFE241792E4E19EB28198C968BAB8199F5D5A67D3E9C49A9E8F47D6EC76B6B0469F26EEFC7C3EBFBCBEB98462213924694B38DD98FE1D62C393D073EA4FADC5DAF04326852CCF6958F90F0F2B9BB5C48816348F90C7840A68EB78EDF68723159BCEE7891A6B95DDE9D3
310
BCEAEEE8086A6C6F9E5D4B59F0175C10A7A0820BAA5055C7473B5AE3CFDD452D602CD5DF12616444529E90D448938013FE6EFA58AA96F85E4F8C42275708571E98FE6827AF6B2B4AE3D7D83D64E5A64C53054DD3AF90BD06FEA9149565C94FCA0F6B834DC85599E4F2423B24DF0B6AFA979E534DFA9E7A4CC6FA631D486393
310
921829879BF5D781A373557BCB85E97FB90DB62B558F8795179C15944B051F40AB495CF35451D26A4727654E6D8033BD98EF82F21D91FF8AF2DD9982BCF1643BDD4EB516C9492E368C67C88DED563FC36D5EACF66DFF057C3658BDBFA69DF9578B3DA735B64F18C7F20770A9D45CFCF7FCF563D6456A277DBEF78A02637CA2
310
43B90A490AEAB94F72244481D24819A6C0E59B606BFA4B3025981DBB48EAB701D97BF19C577CC77F2D1B6C55A9EF3C732474C0B727303F625995056C3B02963D9EAC146BE78EC5FCEC7FA999EBC5EACBAAE41B12D27B4D2C0BBA49F244E2ECDC81B76B502F113D8F5EE8FB1BE3111CDD4FC2AA9B844CAB1288B68AB90A7CDC
310
1C166AB0D3DC5310625FCC14E779BFD0709F8890A629C9292B1B2DED31A4B0DA928CEE135085754027E3018A397D4D5427D15BD1330B677DC8934285AC3DF45A9EB68FF8F2B8FC0A509AFEECFD0FF2DE25CC6047F7214B195F07EFEB9A094D800F7BFAE8FED187B78EA8A3A400F115961BCAD1215E47C966530AF0EE8128FE
310
58CEBB996A8964FFA529A046635D9353B0336A8F700DDF46271A024E70B0B37C9DE01847591E54DED53D54202AB947E4076556AC49C6CA5C9E1226B7F1A7B1BE15DEED62C41B91E1B3E9AFAAA735036547343A925075041DF0A9979E893B391F8FCFA6967B3EFB644DCF6E5CEBFAE272625DCC6FAF3FB93793C5F90CE1EF57
310
407342756B10D1C489E8953CD1617E5CEECAD6F4EF8914CE5D5D504E5C3F1F9736DA62CFC11E00BCDDB8CC8A9466349744C1F75EBDA4DF09BA8A9E8C7A7E9991989E20E5DBDD6A6003664ED8F7A04A8DBE0DF6EAD9B9AA858342E47399053949D2C146EDB85DE4B176BB0965FBAC19BD19AA918E27FA50C1D22402E144464C
310
59462568E704B6E71915404CB72B8FF4EDE184DDAF753F284990D2C6926782963815403548A70C657FDEF80D2D9CEAA2AE4C1C76F60BFE74219A06527D6582DF6412526107381E55E353090704D085B52408D0933C4ED159D79BDA71BB4BC506F4831350EB6F979CD22D69BF7AC49B91A2C0A9DDA3D5CA36AD20FC478E37E6
310
1844E2352865EBCB6EA275A652E3836BE04EFB400BF1A2556F515F1FBB35B2AB35BD889C744FFA1004B5544B121E57F70215746DD2F5E2C1412B602CBF19455AC6C8E5E9922C4E01E65215385004546899059180EAFCF7A707CE7017CD8CDB0410789AB32C63B91E5CEBBBACB17AC6CD347A022D5075FD106377347AAABA7E
310
7D11590744509B44E205134DC1290F06580320F78E537D3D73540E06CB970B431F185308AD40BBD794D6D77003C5A36E8EAA54BA64597CD8F83BD552A080A365F7FF06504B0304140006080000CC70623B000000000000000000000000350000006662782F39464131463745442D413632322D343644302D413938332D3331
310
353338454246344243312F76657274696365732E62696E504B0304140006080800CC70623BF270F1330600000004000000360000006662782F39464131463745442D413632322D343644302D413938332D3331353338454246344243312F747269616E676C65732E62696E636660600000504B0304140006080000CC70623B
310
000000000000000000000000370000006662782F39464131463745442D413632322D343644302D413938332D3331353338454246344243312F617474726962757465732E62696E504B0304140006080800CC70623B08DA0BD19000000041010000360000006662782F39464131463745442D413632322D343644302D413938
310
332D3331353338454246344243312F6469726563746F72792E786D6C858F410AC3201045AF22B36F53E9A60B35CBEEBAE80D244E44489C6234F4F835464A48035D0DF398FF9F8AF63D0E6CC63039F212F8F9020C7D47C6792B21C5FE7403D62A1188E2E60C98D7234A5830286103A55745067B9D86B8A3CF9C7F90C11DE607
310
FB144396D7B6A82D282E9A152AD114D5EF2CB866EEE831B8EEA07A7BB5A8D7D61A2BAAEB7FD5F70921FF497D00504B0304140006080800CC70623B0D6EF93BFE000000A00100003B0000006662782F39464131463745442D413632322D343644302D413938332D3331353338454246344243312F7265736F75726365732F63
310
6F72652E786D6C8D50596E833010BD0A9ADFCA60B334011947A8694ED00B586642AC041B79A97AFC9A40A5F6AF3F33A3B7689E1E3F7DCD8FEC139DD7D6F4C0720A191A65476DA61E62B892236427C19DB5E1970C322367EC618541F0C9D9B8EC90B226A009093576C41D94DE63804C3DD2D18357379C652E63480A7FCF17A9
310
EE72C29CE5894E3AC17D702940B63D59270887DE46A7D0F36263058F518FBB468FE9A7BE6A7420864373B8D4873369AA8691FA421B3294352543C5CAF65C0F6FEF43CB8BD52C78D0F34F46E550061C419494B6843142CB0F5677F4B52BEB177AEC28E5C52AFF638ACBF84F53D42654E51E77B379102C05791282176B5F693D
310
CB4C7BED567C03504B010214000A0000080000CC70623B3DEE336E79000000790000001B00000000000000000000000000000000006175746F6465736B2D64657369676E2D7061636B6167652E786D6C504B01021400140006080800CC70623BD486FD9CA0000000F40000001300000000000000000000000000B20000005B
310
436F6E74656E745F54797065735D2E786D6C504B01021400140006080800CC70623B1EC5D7A3EB0000007C010000080000000000000000000000000083010000636F72652E786D6C504B01021400140006080800CC70623B55019EA25F0000007C000000070000000000000000000000000094020000636E782E786D6C504B
310
01021400140006080800CC70623B8C9102E971010000D40300000C00000000000000000000000000180300006662782F636F72652E786D6C504B01021400140006080800CC70623BFFEA85907E0000009D0000000B00000000000000000000000000B30400006662782F636E782E786D6C504B01021400140006080800CC70
310
623B4FEEA4082C0100001202000031000000000000000000000000005A0500006662782F39464131463745442D413632322D343644302D413938332D3331353338454246344243312F636F72652E786D6C504B01021400140006080800CC70623BAD7543B64E010000330300003000000000000000000000000000D5060000
310
6662782F39464131463745442D413632322D343644302D413938332D3331353338454246344243312F636E782E786D6C504B01021400140006080800CC70623B16AB87BA640500003C1000003400000000000000000000000000710800006662782F39464131463745442D413632322D343644302D413938332D3331353338
310
454246344243312F6F626A656374732E786D6C504B01021400140006080000CC70623B0000000000000000000000003500000000000000000000000000270E00006662782F39464131463745442D413632322D343644302D413938332D3331353338454246344243312F76657274696365732E62696E504B01021400140006
310
080800CC70623BF270F133060000000400000036000000000000000000000000007A0E00006662782F39464131463745442D413632322D343644302D413938332D3331353338454246344243312F747269616E676C65732E62696E504B01021400140006080000CC70623B0000000000000000000000003700000000000000
310
000000000000D40E00006662782F39464131463745442D413632322D343644302D413938332D3331353338454246344243312F617474726962757465732E62696E504B01021400140006080800CC70623B08DA0BD190000000410100003600000000000000000000000000290F00006662782F39464131463745442D413632
310
322D343644302D413938332D3331353338454246344243312F6469726563746F72792E786D6C504B01021400140006080800CC70623B0D6EF93BFE000000A00100003B000000000000000000000000000D1000006662782F39464131463745442D413632322D343644302D413938332D3331353338454246344243312F7265
310
736F75726365732F636F72652E786D6C504B0506000000000E000E0080040000641100000000
  0
XRECORD
  5
5CC
102
{ACAD_REACTORS
330
F
102
}
330
F
100
AcDbXrecord
280
     1
102
MATERIAL
148
0.0
149
0.0
149
0.0
 93
        0
 94
       63
282
     0
 72
     1
 77
     1
171
     1
175
     1
179
     1
273
     0
  0
XRECORD
  5
10
102
{ACAD_REACTORS
330
F
102
}
330
F
100
AcDbXrecord
280
     1
 70
     0
 90
1673772943
  1
ECE7A1D2-D628-4531-984C-D00F80459256
310
504B03040A0000080000CC70623B3DEE336E79000000790000001B0000006175746F6465736B2D64657369676E2D7061636B6167652E786D6C3C3F786D6C2076657273696F6E3D22312E302220656E636F64696E673D227574662D3822203F3E3C666F726D6174733E3C666F726D61743E687474703A2F2F736368656D612E
310
6175746F6465736B2E636F6D2F64657369676E2D7061636B6167652F323030393C2F666F726D61743E3C2F666F726D6174733E504B0304140006080800CC70623BD486FD9CA0000000F4000000130000005B436F6E74656E745F54797065735D2E786D6C7D8EC10E82300C865F65E91D8A1E8C310C0EEA1BF002731658846E
310
D98AC1B77784ABF1D8FE5FBFBF75BBCE937A534CCEB38643598122B6FEE978D0B0485F9C41B54DDD7D022595594E1A469170414C76A4D9A4D207E29CF43ECE46F218070CC6BECC4078ACAA135ACF422C856C0E68EA1BF5669944DDD7BCDE7B1F8E415D77AECB980613C2E4AC91FC167A2B244592486606FC29C8FD7F045B9A
310
EF7053A7E60B504B0304140006080800CC70623BD9DDAED0EC0000007C01000008000000636F72652E786D6C8D90416EC3201045AF82665B61836D9CD8C2444DD39CA01740405C94182C03558F5F9C3852BBEB6A467FFE9B197D7EF89E6EE8CB2CC17A37002D0820E394D7D68D03A478C17B4007C117EFE32F1B20272733C0
310
2A83E0E3E2D3BC49CABB685CCCAAF3DA6CA20CC14440EA969B0182FA34932C648AD911AEC52CD5558EA6A0CF2EC329598D1E47ACCEFBECC59A050463A7EA5833865FEBDD0E37353BE3EE8DBDE3F6786A48D375FBF6CC78B9C282473B3DEFABC5C86834888A900E538A49F5419B9EB47DD5BC907D4F082F57FB1F28CDFA9F50
310
B22ED6D5F6EE030B20687EE43E10BC5CB3C8E51E54AE6B6EE207504B0304140006080800CC70623B55019EA25F0000007C00000007000000636E782E786D6C4DCB3B0E80201045D1AD90E915ED2CF8AC45050C11660C8261F98AB1B07AC9C97D42D718D865D3E909258CFD00CCE24AC6E326A164D74DC0B4128928FF326038
310
472BA13128B1252AC747C6BAB984FC68F0B87FE8960A5C09FE86CFB69FBA01504B0304140006080800CC70623BA24EB22D72010000D40300000C0000006662782F636F72652E786D6CC5535B6E833010BC8AE5DF0A6C5E49888CA3A6694ED00B38E05014B091B1518EDFE511A5A9D228FD2A1F60CDEC7A67C6986DCE4D8D7A
310
69BA4AAB0C073EC548AA5C17952A33ECECD15B61B4E1CC686DBF9561A44423333CC098B3D268D7CE50AE9595CA02AA74216750749DB418E5352C32DCE59FB211BE70162ABA93DF8AFC244AE9073ED050C759670D0840D390E18DF9F1706664C23973AE2A66B62A605A75ACA4C13C4976E1364A12EF355A2EBD384AF65EFA96
310
BC7B8BED2EA6719AAE16FB8491A199335B351775B991C2CA02F390D2D40B028F861F41BCA68B7518BFD0D59A524686F29B26D7164F36B94AD9289CE54E6D1DE6010819891F6E21228B3AD1831EC219194284CF98F06DD01008846CC5A1BEF83801D4CBDC6A1303536877A57A513B0953A94FC707FDBE6064EA84A9E3E6E0FA
310
EE8CF0E9198F7784A316AA0413C2C2F2E0ECA0934D1AE6D05A69BCDE9E91D2A611F573361E38FC1375157F5752AE6B6DFE4B11990F88CCBF0719EE23FF02504B0304140006080800CC70623B408A7D3B7C0000009D0000000B0000006662782F636E782E786D6C4DCCD10A83201886E15B91FFDC552A92A0064DBC8F581632
310
D3703A76F9ABD1C18E3E78F878E5F0D9027ABBFCF2292AE86E2D20171F69F6715550CB827B40839639A5F2770314A7CD293819B45C73AAFB45B35BA61ACAA1C1C7E7855C58C15BC331339661262CC762340413D68D77DA5B42298546CBE6573AF60CEB2F504B0304140006080800CC70623B449FB9BD290100001202000031
310
0000006662782F36394639363044362D344446342D343946362D394244322D3234314243333846323333332F636F72652E786D6C8D515B6EC32010BC0AE22B55850D98B871848994463E412FE002495162B07854397EA176A4F62F3F2C9A9D991D587EB84F37F0AD7D30CEF6905418026DA553C65E7A98E219ED203808EE9D
310
8B7F6810D871D23D2C3014FCE25D9A57483A1BB58D19B54EE9151C43D0110279CB971E06F9A5A7B11A53CC8C70ADE6515EC78BAE4895DB992778883E0700CB907242D17643D7E2538BD869608875438BBAE38922CAC8F1BDD90DB4691A5E2F42C153326A951B95E398B3D1FE599322163C9AE9115F7A3D46ADA0A018778810
310
84E907617BDCEE297BC5BB3DC6BC2EF47FA234AB2745C9D8D8D035EE220B50105E2F0DC1954B9FB747187D9F9D8FA0CCDB042D5FA0C015C65B42DF78BD10F3F3B363CB56C7109DCFDFBBB97E662ED92EB62D13BC2E1BCAE5777DB9966D8A1F504B0304140006080800CC70623BAD7543B64E01000033030000300000006662
310
782F36394639363044362D344446342D343946362D394244322D3234314243333846323333332F636E782E786D6CD593CD6EC32010845F0571AD6CE3D48AD20813A9873E410FBD12D82434182C7EAAE6EDBB2424CD25871E7B41D6EC30B3FA84F9E67BB2E40B4234DE8DB46F1925E094D7C6ED479AD3AE5951B2113C789FEE
310
6C943839C1488B4C05DF079FE72A69D8C96C13AAD6B8631503449F83828872B949AC57D26200B826A308D316B4064D6E46FCDA41C05550DC9E483A00797BFD207EFB092A45DE9514C1BBD22178396BD39D891265658C238DEA00936C654E5E433CB65A26D9F6EDB5EBC14EBF49A45CB856E66048291F6939A9A81BB5C89177
310
38143CA680F4AA299D66A042CEB3354A2684DC9D8D178FE0D9B8B41CAAD720F880EE7EF93C0C18769E099ECC04D5A102C8049A8A05632F4DDF376CF1DE0F6BB65C2F8627B65A33C6BB62177CEBBDAD973006829F89F22E814B54F4BC2BE347F8AA8F681390B50FA73F804400B5F542E796F19FF974E7F78DB802FE05E20750
310
4B0304140006080800CC70623B8D05915C650500003B100000340000006662782F36394639363044362D344446342D343946362D394244322D3234314243333846323333332F6F626A656374732E786D6CAD575B6FA33814FE2B887D06429276DA1565D4266D158D3A339A6846FB502932E050B66023DB74D2FDF5FB190C01
310
9276B2973C046C8ECFF53B17071F77456EBD502133CEAE6CDF9DD81665314F32965ED995DA3A17B6F5310C04E7AA47665B8C14F4CAD6DB7618A48257A5D94AE89654B91AEDDEDDFC61C998326A5B714EA4BCB265FC440BE2924AF184CA6737218AB8E976E7FA6E4338649B0A523E8D98964450A6A029F619B8588D52FE7039
310
B1BD30F0F4F730D0FF866AF6369557DB33949F31A9088B0F848DD8CCFCF9F2767A76E99CCDE733677E3EF59D9BBB9BA5E37F984D16E78BC5E5F5ED25044B25C0C96822E8D60EEFE11B91C581D77CEA34368A1F5329E68CD1B8B61F16D63A1B8E092D294B10C78C4A48EB593D192E7DED9BDEE7995E1B91FDEDD3ACEA9FE831
310
6A756F9F7D4D79F4274C90A7A04248AA51D5F8C718DAE06FB2F75AC4796EBE65D22A88A22223B995679120E2D50E41AA49C260C046A35368846B0BECD0DFF3EBEB8AD4F835768F69B9ADF25C43D30E6B646F807FAA64AD59F61715C7A54127C4AACA98BA3006A9D792DAE165E0D59B61A01FB3A9F9D838D2DAE62445C86166
310
F37564E842E7DE6A69879FEEA2DD5AE7E371E1A5E025154AC307D06A03D73EB5978C58FFA4C8E9033066E0F3BD53BEC1F39F91BE7B55103791EDE6BBB991A2046172CB4581D8B893FA674DDA17A77B3B7C413D1B511FD2743BFF8A38F03A658705E3ADF8015C3A3417FF3D7E439FF591DA0B5F18BC20C1B8981957AE6392A3
310
F43C640C01D1A0B4728E2DD4F26DB4B3C3152A252A3B4E913CEC1C72F012782FF88EFF8637AA552DBEF76408E8A8DE9E50F9E1CB3A2DA0DB1B6039A893B56063DC5B3E3FFB5F72E67AB9FEB4AEC496C4F4C1149625DD662C53E89D7BF0F6151A046260D1337DFDC94502430F83B0EE07A130A224BCAD7DAE1D9FB6CD422FF6
310
920702629C4BB9AE79C12F243C6432A6794E18E5552BA56B431AAB5D91317302B2B071E86C3A42B1A02F999E24061403B5D0EB639195DA655DD3EBEAB4FB862DDF579F014AD0E73C22F99E28DA57FB98E75C6CA2D74D53086D600F4786E0FE3144B771A8A7B900F03594DB8A633CBC49B2EDB69228BB479CF863B5E807AAAB
310
23872F6DFEB4129B949CA33823F58830E86D65621E10047D9DB34D862E8EAC3C2ABC2F7B2C40D67CDFE01F5545B92105AF983AC54D93D69E56FB8E797F88913F898A9FEC705D3F9D1B54EC8426FB500D40A03BD0119B06E1B95DDC7EB8F6975367793EBD70E66733DFB9BC982F9CE564727731999F5D4ECFCE3B8D6A4DC2A0
310
6D50FD148437D110834A64C6CDDF57FBACB5C307A2A477DFE4939736CFEF2B175371E0E10CF0DD1D5C15654E0BCA14D1E87DD02FF93782A162C0A3D95F1524A52770F972BF1EE9809D13CE7DD599467F8ECE9ADD85CE85A34CD45355448C64F9E8A031DC2D596ACC6E5DD93D9B82DE2EF5CAF81363A8E47996A0DE24564A79
310
4115AACE09C55E14540231FDA13C319787134EBF34E3A022514E5B4D9E0826E25C02D5805B15ABE1BEF51B26383D445DD9E875EE33FE4C22DA16427D65A3BCA92CA6D28DD01DF5DC53330704308475351050232CCD31583787BA75774AFB06E5070DD0C8EF484E19968C5D83BA5B90B244D31E54D55A372320FE4786B7EA58
310
44E135AA5467CB7EA333A61683CC6A8C3257034C10CF46F40EF9F5BE59BE5BD30C3C72D235E95D10345C1D45445A5F0BB47E46A5EBE5570F9380B5FA629579952296A773720405982B9DE04011506178964401AA8BDF1FBF0A8EAB6861DD6580C0E38217056766716DAEB2D6FA0917D3E4116581EADB879C4E7CFFB11EFACD
310
3D641311495D92C8676CB409A72D18610D803CE8A626049E8EC1887CB5B44CC39883690DDA8399B4B9855B481E7D71D4A9D22F96E5BB73BF5793020C02137BF837504B0304140006080000CC70623B000000000000000000000000350000006662782F36394639363044362D344446342D343946362D394244322D32343142
310
43333846323333332F76657274696365732E62696E504B0304140006080800CC70623BF270F1330600000004000000360000006662782F36394639363044362D344446342D343946362D394244322D3234314243333846323333332F747269616E676C65732E62696E636660600000504B0304140006080000CC70623B0000
310
00000000000000000000370000006662782F36394639363044362D344446342D343946362D394244322D3234314243333846323333332F617474726962757465732E62696E504B0304140006080800CC70623B08DA0BD19000000041010000360000006662782F36394639363044362D344446342D343946362D394244322D
310
3234314243333846323333332F6469726563746F72792E786D6C858F410AC3201045AF22B36F53E9A60B35CBEEBAE80D244E44489C6234F4F835464A48035D0DF398FF9F8AF63D0E6CC63039F212F8F9020C7D47C6792B21C5FE7403D62A1188E2E60C98D7234A5830286103A55745067B9D86B8A3CF9C7F90C11DE607FB14
310
4396D7B6A82D282E9A152AD114D5EF2CB866EEE831B8EEA07A7BB5A8D7D61A2BAAEB7FD5F70921FF497D00504B0304140006080800CC70623BCA768048FE000000A00100003B0000006662782F36394639363044362D344446342D343946362D394244322D3234314243333846323333332F7265736F75726365732F636F72
310
652E786D6C8D50596E833010BD0A9ADFCA60D600328E9AA639412F609909B1126CE4A5EAF16B0295DABFFECC8CDEA2797AECF8353F924FB44E193D409E5248504B332A3D0D10FC95B4901C39B3C6F85F3248B49871801506CE266BC2B243D2688FDA47549B11775038871E12F988C7004EDE7016A9083E2ADC3D5D84BC8B09
310
D33C8D74D471E6BC8D0192EDC93A815B742658898E651BCB59086ADC356A8C3FD555A1055ED7E7E254D615792D0F075295F585746FF53B694EE78A565DD736979A65AB9933AFE69F8CD2A2F038022F28ED489E135A7CE4554F9BBEA85E68DB53CAB255FEC71496F19FA6A0B42F8B3DEE6673C0F318E4497096AD7DC5F52C33
310
EEB55BFE0D504B010214000A0000080000CC70623B3DEE336E79000000790000001B00000000000000000000000000000000006175746F6465736B2D64657369676E2D7061636B6167652E786D6C504B01021400140006080800CC70623BD486FD9CA0000000F40000001300000000000000000000000000B20000005B436F
310
6E74656E745F54797065735D2E786D6C504B01021400140006080800CC70623BD9DDAED0EC0000007C010000080000000000000000000000000083010000636F72652E786D6C504B01021400140006080800CC70623B55019EA25F0000007C000000070000000000000000000000000095020000636E782E786D6C504B0102
310
1400140006080800CC70623BA24EB22D72010000D40300000C00000000000000000000000000190300006662782F636F72652E786D6C504B01021400140006080800CC70623B408A7D3B7C0000009D0000000B00000000000000000000000000B50400006662782F636E782E786D6C504B01021400140006080800CC70623B
310
449FB9BD290100001202000031000000000000000000000000005A0500006662782F36394639363044362D344446342D343946362D394244322D3234314243333846323333332F636F72652E786D6C504B01021400140006080800CC70623BAD7543B64E010000330300003000000000000000000000000000D20600006662
310
782F36394639363044362D344446342D343946362D394244322D3234314243333846323333332F636E782E786D6C504B01021400140006080800CC70623B8D05915C650500003B10000034000000000000000000000000006E0800006662782F36394639363044362D344446342D343946362D394244322D32343142433338
310
46323333332F6F626A656374732E786D6C504B01021400140006080000CC70623B0000000000000000000000003500000000000000000000000000250E00006662782F36394639363044362D344446342D343946362D394244322D3234314243333846323333332F76657274696365732E62696E504B010214001400060808
310
00CC70623BF270F13306000000040000003600000000000000000000000000780E00006662782F36394639363044362D344446342D343946362D394244322D3234314243333846323333332F747269616E676C65732E62696E504B01021400140006080000CC70623B00000000000000000000000037000000000000000000
310
00000000D20E00006662782F36394639363044362D344446342D343946362D394244322D3234314243333846323333332F617474726962757465732E62696E504B01021400140006080800CC70623B08DA0BD190000000410100003600000000000000000000000000270F00006662782F36394639363044362D344446342D
310
343946362D394244322D3234314243333846323333332F6469726563746F72792E786D6C504B01021400140006080800CC70623BCA768048FE000000A00100003B000000000000000000000000000B1000006662782F36394639363044362D344446342D343946362D394244322D3234314243333846323333332F7265736F
310
75726365732F636F72652E786D6C504B0506000000000E000E0080040000621100000000
  0
XRECORD
  5
5D3
102
{ACAD_REACTORS
330
5D2
102
}
330
5D2
100
AcDbXrecord
280
     1
102
RTVSPropertyOp0
 70
     1
102
RTVSPropertyOp1
 70
     1
102
RTVSPropertyOp2
 70
     1
102
RTVSPropertyOp3
 70
     1
102
RTVSPropertyOp4
 70
     1
102
RTVSPropertyOp5
 70
     1
102
RTVSPropertyOp6
 70
     1
102
RTVSPropertyOp7
 70
     1
102
RTVSPropertyOp8
 70
     1
102
RTVSPropertyOp9
 70
     1
102
RTVSPropertyOp10
 70
     1
102
RTVSPropertyOp11
 70
     1
102
RTVSPropertyOp12
 70
     1
102
RTVSPropertyOp13
 70
     1
102
RTVSPropertyOp14
 70
     1
102
RTVSPropertyOp15
 70
     1
102
RTVSPropertyOp16
 70
     1
102
RTVSPropertyOp17
 70
     1
102
RTVSPropertyOp18
 70
     1
102
RTVSPropertyOp19
 70
     1
102
RTVSPropertyOp20
 70
     1
102
RTVSPropertyOp21
 70
     1
102
RTVSPropertyOp22
 70
     1
102
RTVSPropertyOp23
 70
     1
102
RTVSPropertyOp24
 70
     1
102
RTVSPropertyOp25
 70
     1
102
RTVSPropertyOp26
 70
     1
102
RTVSPropertyOp27
 70
     1
102
RTVSPropertyOp28
 70
     1
102
RTVSPropertyOp29
 70
     1
102
RTVSPropertyOp30
 70
     1
102
RTVSPropertyOp31
 70
     1
102
RTVSPropertyOp32
 70
     1
102
RTVSPropertyOp33
 70
     1
102
RTVSPropertyOp34
 70
     1
102
RTVSPropertyOp35
 70
     1
102
RTVSPropertyOp36
 70
     1
102
RTVSPropertyOp37
 70
     1
102
RTVSPropertyOp38
 70
     1
102
RTVSPropertyOp39
 70
     1
102
RTVSPropertyOp40
 70
     1
102
RTVSPropertyOp41
 70
     1
102
RTVSPropertyOp42
 70
     1
102
RTVSPropertyOp43
 70
     1
102
RTVSPropertyOp44
 70
     1
102
RTVSPropertyOp45
 70
     1
102
RTVSPropertyOp46
 70
     1
102
RTVSPropertyOp47
 70
     1
102
RTVSPropertyOp48
 70
     1
102
RTVSPropertyOp49
 70
     1
102
RTVSPropertyOp50
 70
     1
102
RTVSPropertyOp51
 70
     0
102
RTVSPropertyOp52
 70
     0
102
RTVSPropertyOp53
 70
     1
102
RTVSPropertyOp54
 70
     1
102
RTVSPropertyOp55
 70
     1
102
RTVSPropertyOp56
 70
     1
102
RTVSPropertyOp57
 70
     1
102
RTVSPost2010Prop28
280
     1
102
RTVSPost2010PropOp28
 70
     1
102
RTVSPost2010Prop29
280
     1
102
RTVSPost2010PropOp29
 70
     1
102
RTVSPost2010Prop30
280
     0
102
RTVSPost2010PropOp30
 70
     1
102
RTVSPost2010Prop31
280
     0
102
RTVSPost2010PropOp31
 70
     1
102
RTVSPost2010Prop32
280
     0
102
RTVSPost2010PropOp32
 70
     1
102
RTVSPost2010Prop33
280
     0
102
RTVSPost2010PropOp33
 70
     1
102
RTVSPost2010Prop34
280
     0
102
RTVSPost2010PropOp34
 70
     1
102
RTVSPost2010Prop35
280
     0
102
RTVSPost2010PropOp35
 70
     1
102
RTVSPost2010Prop36
280
     0
102
RTVSPost2010PropOp36
 70
     1
102
RTVSPost2010Prop37
 90
       50
102
RTVSPost2010PropOp37
 70
     1
102
RTVSPost2010Prop38
140
0.0
102
RTVSPost2010PropOp38
 70
     1
102
RTVSPost2010Prop39
140
1.0
102
RTVSPost2010PropOp39
 70
     1
102
RTVSPost2010Prop40
 90
        0
102
RTVSPost2010PropOp40
 70
     1
102
RTVSPost2010Prop41ColorIndex
 90
       18
102
RTVSPost2010Prop41ColorRGB
 90
        0
102
RTVSPost2010PropOp41
 70
     1
102
RTVSPost2010Prop42
 90
       50
102
RTVSPost2010PropOp42
 70
     1
102
RTVSPost2010Prop43
 90
        3
102
RTVSPost2010PropOp43
 70
     1
102
RTVSPost2010Prop44ColorIndex
 90
        5
102
RTVSPost2010Prop44ColorRGB
 90
      255
102
RTVSPost2010PropOp44
 70
     1
102
RTVSPost2010Prop45
280
     0
102
RTVSPost2010PropOp45
 70
     1
102
RTVSPost2010Prop46
 90
       50
102
RTVSPost2010PropOp46
 70
     1
102
RTVSPost2010Prop47
 90
       50
102
RTVSPost2010PropOp47
 70
     1
102
RTVSPost2010Prop48
 90
       50
102
RTVSPost2010PropOp48
 70
     1
102
RTVSPost2010Prop49
280
     0
102
RTVSPost2010PropOp49
 70
     1
102
RTVSPost2010Prop50
 90
       50
102
RTVSPost2010PropOp50
 70
     1
102
RTVSPost2010Prop51ColorIndex
 90
      256
102
RTVSPost2010Prop51ColorRGB
 90
-16777216
102
RTVSPost2010PropOp51
 70
     0
102
RTVSPost2010Prop52
140
1.0
102
RTVSPost2010PropOp52
 70
     0
102
RTVSPost2010Prop53
 90
        2
102
RTVSPost2010PropOp53
 70
     1
102
RTVSPost2010Prop54
  1
strokes_ogs.tif
102
RTVSPost2010PropOp54
 70
     1
102
RTVSPost2010Prop55
280
     0
102
RTVSPost2010PropOp55
 70
     1
102
RTVSPost2010Prop56
140
1.0
102
RTVSPost2010PropOp56
 70
     1
102
RTVSPost2010Prop57
140
1.0
102
RTVSPost2010PropOp57
 70
     1
  0
XRECORD
  5
5CF
102
{ACAD_REACTORS
330
5CE
102
}
330
5CE
100
AcDbXrecord
280
     1
102
RTVSPropertyOp0
 70
     1
102
RTVSPropertyOp1
 70
     1
102
RTVSPropertyOp2
 70
     1
102
RTVSPropertyOp3
 70
     1
102
RTVSPropertyOp4
 70
     1
102
RTVSPropertyOp5
 70
     1
102
RTVSPropertyOp6
 70
     1
102
RTVSPropertyOp7
 70
     1
102
RTVSPropertyOp8
 70
     1
102
RTVSPropertyOp9
 70
     1
102
RTVSPropertyOp10
 70
     1
102
RTVSPropertyOp11
 70
     1
102
RTVSPropertyOp12
 70
     1
102
RTVSPropertyOp13
 70
     1
102
RTVSPropertyOp14
 70
     1
102
RTVSPropertyOp15
 70
     1
102
RTVSPropertyOp16
 70
     1
102
RTVSPropertyOp17
 70
     1
102
RTVSPropertyOp18
 70
     1
102
RTVSPropertyOp19
 70
     1
102
RTVSPropertyOp20
 70
     1
102
RTVSPropertyOp21
 70
     1
102
RTVSPropertyOp22
 70
     1
102
RTVSPropertyOp23
 70
     1
102
RTVSPropertyOp24
 70
     1
102
RTVSPropertyOp25
 70
     1
102
RTVSPropertyOp26
 70
     1
102
RTVSPropertyOp27
 70
     1
102
RTVSPropertyOp28
 70
     1
102
RTVSPropertyOp29
 70
     1
102
RTVSPropertyOp30
 70
     1
102
RTVSPropertyOp31
 70
     1
102
RTVSPropertyOp32
 70
     1
102
RTVSPropertyOp33
 70
     1
102
RTVSPropertyOp34
 70
     1
102
RTVSPropertyOp35
 70
     1
102
RTVSPropertyOp36
 70
     1
102
RTVSPropertyOp37
 70
     1
102
RTVSPropertyOp38
 70
     1
102
RTVSPropertyOp39
 70
     1
102
RTVSPropertyOp40
 70
     1
102
RTVSPropertyOp41
 70
     1
102
RTVSPropertyOp42
 70
     1
102
RTVSPropertyOp43
 70
     1
102
RTVSPropertyOp44
 70
     1
102
RTVSPropertyOp45
 70
     1
102
RTVSPropertyOp46
 70
     1
102
RTVSPropertyOp47
 70
     1
102
RTVSPropertyOp48
 70
     1
102
RTVSPropertyOp49
 70
     1
102
RTVSPropertyOp50
 70
     1
102
RTVSPropertyOp51
 70
     0
102
RTVSPropertyOp52
 70
     0
102
RTVSPropertyOp53
 70
     1
102
RTVSPropertyOp54
 70
     1
102
RTVSPropertyOp55
 70
     1
102
RTVSPropertyOp56
 70
     1
102
RTVSPropertyOp57
 70
     1
102
RTVSPost2010Prop28
280
     0
102
RTVSPost2010PropOp28
 70
     1
102
RTVSPost2010Prop29
280
     1
102
RTVSPost2010PropOp29
 70
     1
102
RTVSPost2010Prop30
280
     1
102
RTVSPost2010PropOp30
 70
     1
102
RTVSPost2010Prop31
280
     0
102
RTVSPost2010PropOp31
 70
     1
102
RTVSPost2010Prop32
280
     0
102
RTVSPost2010PropOp32
 70
     1
102
RTVSPost2010Prop33
280
     0
102
RTVSPost2010PropOp33
 70
     1
102
RTVSPost2010Prop34
280
     0
102
RTVSPost2010PropOp34
 70
     1
102
RTVSPost2010Prop35
280
     0
102
RTVSPost2010PropOp35
 70
     1
102
RTVSPost2010Prop36
280
     0
102
RTVSPost2010PropOp36
 70
     1
102
RTVSPost2010Prop37
 90
       50
102
RTVSPost2010PropOp37
 70
     1
102
RTVSPost2010Prop38
140
0.0
102
RTVSPost2010PropOp38
 70
     1
102
RTVSPost2010Prop39
140
1.0
102
RTVSPost2010PropOp39
 70
     1
102
RTVSPost2010Prop40
 90
        0
102
RTVSPost2010PropOp40
 70
     1
102
RTVSPost2010Prop41ColorIndex
 90
       18
102
RTVSPost2010Prop41ColorRGB
 90
        0
102
RTVSPost2010PropOp41
 70
     1
102
RTVSPost2010Prop42
 90
       50
102
RTVSPost2010PropOp42
 70
     1
102
RTVSPost2010Prop43
 90
        3
102
RTVSPost2010PropOp43
 70
     1
102
RTVSPost2010Prop44ColorIndex
 90
        5
102
RTVSPost2010Prop44ColorRGB
 90
      255
102
RTVSPost2010PropOp44
 70
     1
102
RTVSPost2010Prop45
280
     0
102
RTVSPost2010PropOp45
 70
     1
102
RTVSPost2010Prop46
 90
       50
102
RTVSPost2010PropOp46
 70
     1
102
RTVSPost2010Prop47
 90
       50
102
RTVSPost2010PropOp47
 70
     1
102
RTVSPost2010Prop48
 90
       50
102
RTVSPost2010PropOp48
 70
     1
102
RTVSPost2010Prop49
280
     0
102
RTVSPost2010PropOp49
 70
     1
102
RTVSPost2010Prop50
 90
       50
102
RTVSPost2010PropOp50
 70
     1
102
RTVSPost2010Prop51ColorIndex
 90
      256
102
RTVSPost2010Prop51ColorRGB
 90
-16777216
102
RTVSPost2010PropOp51
 70
     0
102
RTVSPost2010Prop52
140
1.0
102
RTVSPost2010PropOp52
 70
     0
102
RTVSPost2010Prop53
 90
        2
102
RTVSPost2010PropOp53
 70
     1
102
RTVSPost2010Prop54
  1
strokes_ogs.tif
102
RTVSPost2010PropOp54
 70
     1
102
RTVSPost2010Prop55
280
     0
102
RTVSPost2010PropOp55
 70
     1
102
RTVSPost2010Prop56
140
1.0
102
RTVSPost2010PropOp56
 70
     1
102
RTVSPost2010Prop57
140
1.0
102
RTVSPost2010PropOp57
 70
     1
  0
XRECORD
  5
5D1
102
{ACAD_REACTORS
330
5D0
102
}
330
5D0
100
AcDbXrecord
280
     1
102
RTVSPropertyOp0
 70
     1
102
RTVSPropertyOp1
 70
     1
102
RTVSPropertyOp2
 70
     1
102
RTVSPropertyOp3
 70
     1
102
RTVSPropertyOp4
 70
     1
102
RTVSPropertyOp5
 70
     1
102
RTVSPropertyOp6
 70
     1
102
RTVSPropertyOp7
 70
     1
102
RTVSPropertyOp8
 70
     1
102
RTVSPropertyOp9
 70
     1
102
RTVSPropertyOp10
 70
     1
102
RTVSPropertyOp11
 70
     1
102
RTVSPropertyOp12
 70
     1
102
RTVSPropertyOp13
 70
     1
102
RTVSPropertyOp14
 70
     1
102
RTVSPropertyOp15
 70
     1
102
RTVSPropertyOp16
 70
     1
102
RTVSPropertyOp17
 70
     1
102
RTVSPropertyOp18
 70
     1
102
RTVSPropertyOp19
 70
     1
102
RTVSPropertyOp20
 70
     1
102
RTVSPropertyOp21
 70
     1
102
RTVSPropertyOp22
 70
     1
102
RTVSPropertyOp23
 70
     1
102
RTVSPropertyOp24
 70
     1
102
RTVSPropertyOp25
 70
     1
102
RTVSPropertyOp26
 70
     1
102
RTVSPropertyOp27
 70
     1
102
RTVSPropertyOp28
 70
     1
102
RTVSPropertyOp29
 70
     1
102
RTVSPropertyOp30
 70
     1
102
RTVSPropertyOp31
 70
     1
102
RTVSPropertyOp32
 70
     1
102
RTVSPropertyOp33
 70
     1
102
RTVSPropertyOp34
 70
     1
102
RTVSPropertyOp35
 70
     1
102
RTVSPropertyOp36
 70
     1
102
RTVSPropertyOp37
 70
     1
102
RTVSPropertyOp38
 70
     1
102
RTVSPropertyOp39
 70
     1
102
RTVSPropertyOp40
 70
     1
102
RTVSPropertyOp41
 70
     1
102
RTVSPropertyOp42
 70
     1
102
RTVSPropertyOp43
 70
     1
102
RTVSPropertyOp44
 70
     1
102
RTVSPropertyOp45
 70
     1
102
RTVSPropertyOp46
 70
     1
102
RTVSPropertyOp47
 70
     1
102
RTVSPropertyOp48
 70
     1
102
RTVSPropertyOp49
 70
     1
102
RTVSPropertyOp50
 70
     1
102
RTVSPropertyOp51
 70
     0
102
RTVSPropertyOp52
 70
     0
102
RTVSPropertyOp53
 70
     1
102
RTVSPropertyOp54
 70
     1
102
RTVSPropertyOp55
 70
     1
102
RTVSPropertyOp56
 70
     1
102
RTVSPropertyOp57
 70
     1
102
RTVSPost2010Prop28
280
     0
102
RTVSPost2010PropOp28
 70
     1
102
RTVSPost2010Prop29
280
     1
102
RTVSPost2010PropOp29
 70
     1
102
RTVSPost2010Prop30
280
     1
102
RTVSPost2010PropOp30
 70
     1
102
RTVSPost2010Prop31
280
     0
102
RTVSPost2010PropOp31
 70
     1
102
RTVSPost2010Prop32
280
     0
102
RTVSPost2010PropOp32
 70
     1
102
RTVSPost2010Prop33
280
     0
102
RTVSPost2010PropOp33
 70
     1
102
RTVSPost2010Prop34
280
     0
102
RTVSPost2010PropOp34
 70
     1
102
RTVSPost2010Prop35
280
     0
102
RTVSPost2010PropOp35
 70
     1
102
RTVSPost2010Prop36
280
     0
102
RTVSPost2010PropOp36
 70
     1
102
RTVSPost2010Prop37
 90
       50
102
RTVSPost2010PropOp37
 70
     1
102
RTVSPost2010Prop38
140
0.0
102
RTVSPost2010PropOp38
 70
     1
102
RTVSPost2010Prop39
140
1.0
102
RTVSPost2010PropOp39
 70
     1
102
RTVSPost2010Prop40
 90
        0
102
RTVSPost2010PropOp40
 70
     1
102
RTVSPost2010Prop41ColorIndex
 90
       18
102
RTVSPost2010Prop41ColorRGB
 90
        0
102
RTVSPost2010PropOp41
 70
     1
102
RTVSPost2010Prop42
 90
       50
102
RTVSPost2010PropOp42
 70
     1
102
RTVSPost2010Prop43
 90
        3
102
RTVSPost2010PropOp43
 70
     1
102
RTVSPost2010Prop44ColorIndex
 90
        5
102
RTVSPost2010Prop44ColorRGB
 90
      255
102
RTVSPost2010PropOp44
 70
     1
102
RTVSPost2010Prop45
280
     0
102
RTVSPost2010PropOp45
 70
     1
102
RTVSPost2010Prop46
 90
       50
102
RTVSPost2010PropOp46
 70
     1
102
RTVSPost2010Prop47
 90
       50
102
RTVSPost2010PropOp47
 70
     1
102
RTVSPost2010Prop48
 90
       50
102
RTVSPost2010PropOp48
 70
     1
102
RTVSPost2010Prop49
280
     0
102
RTVSPost2010PropOp49
 70
     1
102
RTVSPost2010Prop50
 90
       50
102
RTVSPost2010PropOp50
 70
     1
102
RTVSPost2010Prop51ColorIndex
 90
      256
102
RTVSPost2010Prop51ColorRGB
 90
-16777216
102
RTVSPost2010PropOp51
 70
     0
102
RTVSPost2010Prop52
140
1.0
102
RTVSPost2010PropOp52
 70
     0
102
RTVSPost2010Prop53
 90
        2
102
RTVSPost2010PropOp53
 70
     1
102
RTVSPost2010Prop54
  1
strokes_ogs.tif
102
RTVSPost2010PropOp54
 70
     1
102
RTVSPost2010Prop55
280
     0
102
RTVSPost2010PropOp55
 70
     1
102
RTVSPost2010Prop56
140
1.0
102
RTVSPost2010PropOp56
 70
     1
102
RTVSPost2010Prop57
140
1.0
102
RTVSPost2010PropOp57
 70
     1
  0
ENDSEC
  0
EOF
